ISO-10303-21;
HEADER;
FILE_DESCRIPTION (( 'STEP AP203' ),
    '1' );
FILE_NAME ('953218.step',
    '2023-09-27T05:49:04',
    ( '' ),
    ( '' ),
    'SwSTEP 2.0',
    'SolidWorks 2022',
    '' );
FILE_SCHEMA (( 'CONFIG_CONTROL_DESIGN' ));
ENDSEC;

DATA;
#1 = CIRCLE ( 'NONE', #95, 0.2549999999999997824 ) ;
#2 = DIRECTION ( 'NONE',  ( 1.000000000000000000, 0.000000000000000000, 0.000000000000000000 ) ) ;
#3 = CARTESIAN_POINT ( 'NONE',  ( 1.636631877582708111E-15, 0.000000000000000000, 0.4687499999999969469 ) ) ;
#4 = CARTESIAN_POINT ( 'NONE',  ( 1.326762908760390423E-13, 1.199999999999993516, 38.00000000000000000 ) ) ;
#5 = DIRECTION ( 'NONE',  ( 3.491481338843133355E-15, -0.000000000000000000, 1.000000000000000000 ) ) ;
#6 = AXIS2_PLACEMENT_3D ( 'NONE', #83, #177, #198 ) ;
#7 = CARTESIAN_POINT ( 'NONE',  ( 4.728047646350040591E-16, 0.000000000000000000, 0.1354166666666656305 ) ) ;
#8 = EDGE_LOOP ( 'NONE', ( #208 ) ) ;
#9 = DESIGN_CONTEXT ( 'detailed design', #219, 'design' ) ;
#10 = DATE_AND_TIME ( #364, #311 ) ;
#11 = EDGE_CURVE ( 'NONE', #81, #81, #186, .T. ) ;
#12 = AXIS2_PLACEMENT_3D ( 'NONE', #121, #326, #234 ) ;
#13 = ORIENTED_EDGE ( 'NONE', *, *, #302, .F. ) ;
#14 = FACE_OUTER_BOUND ( 'NONE', #156, .T. ) ;
#15 = COORDINATED_UNIVERSAL_TIME_OFFSET ( 1, 0, .AHEAD. ) ;
#16 = LOCAL_TIME ( 7, 49, 4.000000000000000000, #48 ) ;
#17 = CARTESIAN_POINT ( 'NONE',  ( 4.000655700757801179E-16, 0.000000000000000000, 0.1145833333333345916 ) ) ;
#18 = ORIENTED_EDGE ( 'NONE', *, *, #317, .T. ) ;
#19 = DIRECTION ( 'NONE',  ( 3.491481338843133355E-15, -0.000000000000000000, 1.000000000000000000 ) ) ;
#20 = AXIS2_PLACEMENT_3D ( 'NONE', #31, #5, #145 ) ;
#21 = CARTESIAN_POINT ( 'NONE',  ( 1.326762908760390423E-13, 0.000000000000000000, 38.00000000000000000 ) ) ;
#22 = DATE_AND_TIME ( #247, #52 ) ;
#23 = APPROVAL_STATUS ( 'not_yet_approved' ) ;
#24 = FACE_OUTER_BOUND ( 'NONE', #255, .T. ) ;
#25 = CARTESIAN_POINT ( 'NONE',  ( 0.2565358449660651297, 0.000000000000000000, -8.956901154433715261E-16 ) ) ;
#26 = CC_DESIGN_DATE_AND_TIME_ASSIGNMENT ( #45, #236, ( #39 ) ) ;
#27 = FACE_OUTER_BOUND ( 'NONE', #36, .T. ) ;
#28 = PLANE ( 'NONE',  #109 ) ;
#29 = CARTESIAN_POINT ( 'NONE',  ( 1.326762908760390423E-13, 0.000000000000000000, 38.00000000000000000 ) ) ;
#30 = CARTESIAN_POINT ( 'NONE',  ( 9.776147748760762351E-15, 0.000000000000000000, 2.799999999999997158 ) ) ;
#31 = CARTESIAN_POINT ( 'NONE',  ( 1.326762908760390423E-13, 0.000000000000000000, 38.00000000000000000 ) ) ;
#32 = EDGE_CURVE ( 'NONE', #358, #358, #345, .T. ) ;
#33 = CYLINDRICAL_SURFACE ( 'NONE', #395, 0.3106624327025926946 ) ;
#34 = COORDINATED_UNIVERSAL_TIME_OFFSET ( 1, 0, .AHEAD. ) ;
#35 = CIRCLE ( 'NONE', #201, 0.4550000000000000155 ) ;
#36 = EDGE_LOOP ( 'NONE', ( #350 ) ) ;
#37 = CC_DESIGN_APPROVAL ( #290, ( #182 ) ) ;
#38 = EDGE_LOOP ( 'NONE', ( #13 ) ) ;
#39 = PRODUCT_DEFINITION ( 'UNKNOWN', '', #182, #9 ) ;
#40 = DIRECTION ( 'NONE',  ( 3.491481338843133355E-15, -0.000000000000000000, 1.000000000000000000 ) ) ;
#41 = AXIS2_PLACEMENT_3D ( 'NONE', #134, #164, #249 ) ;
#42 = ORIENTED_EDGE ( 'NONE', *, *, #277, .T. ) ;
#43 = COORDINATED_UNIVERSAL_TIME_OFFSET ( 1, 0, .AHEAD. ) ;
#44 = CALENDAR_DATE ( 2023, 27, 9 ) ;
#45 = DATE_AND_TIME ( #274, #275 ) ;
#46 = CONICAL_SURFACE ( 'NONE', #12, 0.2890741737109298048, 0.2617993877991427465 ) ;
#47 = EDGE_LOOP ( 'NONE', ( #136 ) ) ;
#48 = COORDINATED_UNIVERSAL_TIME_OFFSET ( 1, 0, .AHEAD. ) ;
#49 = CONICAL_SURFACE ( 'NONE', #264, 0.4550000000000000155, 1.047197551196612064 ) ;
#50 = ORIENTED_EDGE ( 'NONE', *, *, #362, .F. ) ;
#51 = UNCERTAINTY_MEASURE_WITH_UNIT (LENGTH_MEASURE( 1.000000000000000082E-05 ), #72, 'distance_accuracy_value', 'NONE');
#52 = LOCAL_TIME ( 7, 49, 4.000000000000000000, #347 ) ;
#53 = DIRECTION ( 'NONE',  ( 3.491481338843133355E-15, -0.000000000000000000, 1.000000000000000000 ) ) ;
#54 = VERTEX_POINT ( 'NONE', #231 ) ;
#55 = ADVANCED_FACE ( 'NONE', ( #342, #161 ), #185, .T. ) ;
#56 = DIRECTION ( 'NONE',  ( 1.000000000000000000, 0.000000000000000000, 0.000000000000000000 ) ) ;
#57 = DIRECTION ( 'NONE',  ( 1.000000000000000000, 0.000000000000000000, -4.625929269271490844E-15 ) ) ;
#58 = FACE_OUTER_BOUND ( 'NONE', #273, .T. ) ;
#59 = VERTEX_POINT ( 'NONE', #262 ) ;
#60 = CARTESIAN_POINT ( 'NONE',  ( 9.819791265496200149E-16, 0.000000000000000000, 0.2812499999999967804 ) ) ;
#61 = EDGE_CURVE ( 'NONE', #390, #390, #218, .T. ) ;
#62 = CARTESIAN_POINT ( 'NONE',  ( 1.326762908760390423E-13, 0.000000000000000000, 38.00000000000000000 ) ) ;
#63 = AXIS2_PLACEMENT_3D ( 'NONE', #88, #258, #223 ) ;
#64 = FACE_OUTER_BOUND ( 'NONE', #340, .T. ) ;
#65 = ORIENTED_EDGE ( 'NONE', *, *, #257, .T. ) ;
#66 = EDGE_LOOP ( 'NONE', ( #243 ) ) ;
#67 = MANIFOLD_SOLID_BREP ( 'Corps-Déplacer/Copier1', #334 ) ;
#68 = CIRCLE ( 'NONE', #283, 0.3106624327025926946 ) ;
#69 = PRODUCT ( '953218', '953218', '', ( #360 ) ) ;
#70 = APPROVAL_PERSON_ORGANIZATION ( #80, #173, #76 ) ;
#71 = ORIENTED_EDGE ( 'NONE', *, *, #277, .F. ) ;
#72 =( LENGTH_UNIT ( ) NAMED_UNIT ( * ) SI_UNIT ( .MILLI., .METRE. ) );
#73 = EDGE_LOOP ( 'NONE', ( #278 ) ) ;
#74 = CARTESIAN_POINT ( 'NONE',  ( 1.745740669421568255E-15, 0.000000000000000000, 0.5000000000000004441 ) ) ;
#75 = ORIENTED_EDGE ( 'NONE', *, *, #144, .T. ) ;
#76 = APPROVAL_ROLE ( '' ) ;
#77 = PERSON_AND_ORGANIZATION ( #309, #339 ) ;
#78 = DIRECTION ( 'NONE',  ( 1.000000000000000000, 0.000000000000000000, -3.491481338843133355E-15 ) ) ;
#79 = ORIENTED_EDGE ( 'NONE', *, *, #11, .T. ) ;
#80 = PERSON_AND_ORGANIZATION ( #309, #339 ) ;
#81 = VERTEX_POINT ( 'NONE', #292 ) ;
#82 = EDGE_CURVE ( 'NONE', #59, #59, #35, .T. ) ;
#83 = CARTESIAN_POINT ( 'NONE',  ( 1.345675099345788088E-15, 0.000000000000000000, 0.3854166666666658525 ) ) ;
#84 = DIRECTION ( 'NONE',  ( -3.491481338843133355E-15, 0.000000000000000000, -1.000000000000000000 ) ) ;
#85 = DIRECTION ( 'NONE',  ( 3.491481338843133355E-15, -0.000000000000000000, 1.000000000000000000 ) ) ;
#86 = CARTESIAN_POINT ( 'NONE',  ( 0.2550000000000017808, 0.000000000000000000, 0.4999999999999995559 ) ) ;
#87 = CIRCLE ( 'NONE', #105, 0.4550000000000000155 ) ;
#88 = CARTESIAN_POINT ( 'NONE',  ( 9.819791265496200149E-16, 0.000000000000000000, 0.2812499999999967804 ) ) ;
#89 = AXIS2_PLACEMENT_3D ( 'NONE', #116, #322, #56 ) ;
#90 = CARTESIAN_POINT ( 'NONE',  ( 1.745740669421566678E-15, 0.3106624327025925836, 0.5000000000000000000 ) ) ;
#91 = DIRECTION ( 'NONE',  ( 3.491481338843133355E-15, -0.000000000000000000, 1.000000000000000000 ) ) ;
#92 = ORIENTED_EDGE ( 'NONE', *, *, #388, .T. ) ;
#93 = EDGE_CURVE ( 'NONE', #320, #320, #87, .T. ) ;
#94 = APPROVAL_PERSON_ORGANIZATION ( #77, #290, #305 ) ;
#95 = AXIS2_PLACEMENT_3D ( 'NONE', #30, #151, #268 ) ;
#96 = ADVANCED_FACE ( 'NONE', ( #387, #263 ), #33, .T. ) ;
#97 = ORIENTED_EDGE ( 'NONE', *, *, #113, .T. ) ;
#98 = FACE_OUTER_BOUND ( 'NONE', #303, .T. ) ;
#99 = ORIENTED_EDGE ( 'NONE', *, *, #32, .F. ) ;
#100 = FACE_BOUND ( 'NONE', #8, .T. ) ;
#101 = DIRECTION ( 'NONE',  ( 1.000000000000000000, 0.000000000000000000, -3.514721328387074684E-15 ) ) ;
#102 = SHAPE_DEFINITION_REPRESENTATION ( #333, #238 ) ;
#103 = APPLICATION_CONTEXT ( 'configuration controlled 3d designs of mechanical parts and assemblies' ) ;
#104 = AXIS2_PLACEMENT_3D ( 'NONE', #310, #252, #282 ) ;
#105 = AXIS2_PLACEMENT_3D ( 'NONE', #140, #383, #101 ) ;
#106 = EDGE_LOOP ( 'NONE', ( #313 ) ) ;
#107 = ORIENTED_EDGE ( 'NONE', *, *, #181, .F. ) ;
#108 = DIRECTION ( 'NONE',  ( -1.000000000000000000, 0.000000000000000000, 3.455149780448310626E-15 ) ) ;
#109 = AXIS2_PLACEMENT_3D ( 'NONE', #353, #85, #324 ) ;
#110 = DIRECTION ( 'NONE',  ( 3.491481338843133355E-15, -0.000000000000000000, 1.000000000000000000 ) ) ;
#111 = AXIS2_PLACEMENT_3D ( 'NONE', #357, #180, #276 ) ;
#112 = APPROVAL_STATUS ( 'not_yet_approved' ) ;
#113 = EDGE_CURVE ( 'NONE', #54, #54, #230, .T. ) ;
#114 = PERSON_AND_ORGANIZATION ( #309, #339 ) ;
#115 = DIRECTION ( 'NONE',  ( 1.000000000000000000, 0.000000000000000000, -3.489968719595544330E-15 ) ) ;
#116 = CARTESIAN_POINT ( 'NONE',  ( 0.000000000000000000, 0.000000000000000000, 0.000000000000000000 ) ) ;
#117 = VERTEX_POINT ( 'NONE', #86 ) ;
#118 = APPLICATION_PROTOCOL_DEFINITION ( 'international standard', 'config_control_design', 1994, #103 ) ;
#119 = DIRECTION ( 'NONE',  ( 1.000000000000000000, 0.000000000000000000, -3.469446951953614189E-15 ) ) ;
#120 = PERSON_AND_ORGANIZATION_ROLE ( 'design_owner' ) ;
#121 = CARTESIAN_POINT ( 'NONE',  ( 1.067980961487340868E-14, 0.000000000000000000, 3.058819045102516121 ) ) ;
#122 = CYLINDRICAL_SURFACE ( 'NONE', #199, 1.499999999999998224 ) ;
#123 = ADVANCED_FACE ( 'NONE', ( #142, #172 ), #46, .T. ) ;
#124 = FACE_BOUND ( 'NONE', #246, .T. ) ;
#125 = AXIS2_PLACEMENT_3D ( 'NONE', #323, #298, #328 ) ;
#126 = CC_DESIGN_APPROVAL ( #173, ( #348 ) ) ;
#127 = CARTESIAN_POINT ( 'NONE',  ( 1.200000000000126299, 0.000000000000000000, 37.99999999999999289 ) ) ;
#128 = ADVANCED_FACE ( 'NONE', ( #58, #389 ), #203, .T. ) ;
#129 = ORIENTED_EDGE ( 'NONE', *, *, #61, .F. ) ;
#130 =( NAMED_UNIT ( * ) PLANE_ANGLE_UNIT ( ) SI_UNIT ( $, .RADIAN. ) );
#131 = EDGE_LOOP ( 'NONE', ( #99 ) ) ;
#132 = ADVANCED_FACE ( 'NONE', ( #232, #178 ), #376, .T. ) ;
#133 = ORIENTED_EDGE ( 'NONE', *, *, #144, .F. ) ;
#134 = CARTESIAN_POINT ( 'NONE',  ( 1.316288464743861212E-13, 0.000000000000000000, 37.69999999999999574 ) ) ;
#135 = CARTESIAN_POINT ( 'NONE',  ( 1.316288464743861212E-13, 0.000000000000000000, 37.69999999999999574 ) ) ;
#136 = ORIENTED_EDGE ( 'NONE', *, *, #302, .T. ) ;
#137 = CIRCLE ( 'NONE', #341, 1.500000000000000000 ) ;
#138 = ADVANCED_FACE ( 'NONE', ( #363 ), #28, .F. ) ;
#139 = DIRECTION ( 'NONE',  ( 1.000000000000000000, 0.000000000000000000, -3.484935554417692655E-15 ) ) ;
#140 = CARTESIAN_POINT ( 'NONE',  ( 4.728047646350040591E-16, 0.000000000000000000, 0.1354166666666656305 ) ) ;
#141 = CIRCLE ( 'NONE', #125, 0.3106624327025925836 ) ;
#142 = FACE_OUTER_BOUND ( 'NONE', #38, .T. ) ;
#143 = CIRCLE ( 'NONE', #369, 0.4550000000000000155 ) ;
#144 = EDGE_CURVE ( 'NONE', #394, #394, #330, .T. ) ;
#145 = DIRECTION ( 'NONE',  ( 1.000000000000000000, 0.000000000000000000, 0.000000000000000000 ) ) ;
#146 = DIRECTION ( 'NONE',  ( 1.000000000000000000, 0.000000000000000000, 0.000000000000000000 ) ) ;
#147 = APPROVAL_PERSON_ORGANIZATION ( #241, #372, #281 ) ;
#148 = FACE_OUTER_BOUND ( 'NONE', #312, .T. ) ;
#149 = DIRECTION ( 'NONE',  ( -1.000000000000000000, 0.000000000000000000, 3.491481338843133355E-15 ) ) ;
#150 = CARTESIAN_POINT ( 'NONE',  ( 1.500000000000026423, 0.000000000000000000, 7.578055753010766615 ) ) ;
#151 = DIRECTION ( 'NONE',  ( 3.491481338843133355E-15, -0.000000000000000000, 1.000000000000000000 ) ) ;
#152 = CARTESIAN_POINT ( 'NONE',  ( 1.272935904786564295E-15, 0.000000000000000000, 0.3645833333333348136 ) ) ;
#153 = DIRECTION ( 'NONE',  ( 3.491481338843133355E-15, -0.000000000000000000, 1.000000000000000000 ) ) ;
#154 = EDGE_LOOP ( 'NONE', ( #192 ) ) ;
#155 = AXIS2_PLACEMENT_3D ( 'NONE', #159, #280, #78 ) ;
#156 = EDGE_LOOP ( 'NONE', ( #79 ) ) ;
#157 = EDGE_LOOP ( 'NONE', ( #75 ) ) ;
#158 = DIRECTION ( 'NONE',  ( 1.000000000000000000, 0.000000000000000000, -3.401418580346680523E-15 ) ) ;
#159 = CARTESIAN_POINT ( 'NONE',  ( 0.000000000000000000, 0.000000000000000000, 0.000000000000000000 ) ) ;
#160 = CC_DESIGN_PERSON_AND_ORGANIZATION_ASSIGNMENT ( #237, #366, ( #39 ) ) ;
#161 = FACE_OUTER_BOUND ( 'NONE', #154, .T. ) ;
#162 = ORIENTED_EDGE ( 'NONE', *, *, #82, .F. ) ;
#163 = AXIS2_PLACEMENT_3D ( 'NONE', #370, #213, #343 ) ;
#164 = DIRECTION ( 'NONE',  ( 3.491481338843133355E-15, -0.000000000000000000, 1.000000000000000000 ) ) ;
#165 = ADVANCED_FACE ( 'NONE', ( #64 ), #299, .F. ) ;
#166 = PERSON_AND_ORGANIZATION ( #309, #339 ) ;
#167 = CARTESIAN_POINT ( 'NONE',  ( 1.345675099345788088E-15, 0.000000000000000000, 0.3854166666666658525 ) ) ;
#168 = FACE_OUTER_BOUND ( 'NONE', #184, .T. ) ;
#169 = PLANE ( 'NONE',  #205 ) ;
#170 = CARTESIAN_POINT ( 'NONE',  ( 0.4550000000000013478, 0.000000000000000000, 0.3854166666666642982 ) ) ;
#171 = DIRECTION ( 'NONE',  ( 1.000000000000000000, 0.000000000000000000, -3.000481595618961472E-15 ) ) ;
#172 = FACE_BOUND ( 'NONE', #379, .T. ) ;
#173 = APPROVAL ( #23, 'UNSPECIFIED' ) ;
#174 = CARTESIAN_POINT ( 'NONE',  ( 0.4550000000000012368, 0.000000000000000000, 0.3645833333333332593 ) ) ;
#175 = VERTEX_POINT ( 'NONE', #329 ) ;
#176 = DIRECTION ( 'NONE',  ( 1.000000000000000000, 0.000000000000000000, 0.000000000000000000 ) ) ;
#177 = DIRECTION ( 'NONE',  ( 3.491481338843133355E-15, -0.000000000000000000, 1.000000000000000000 ) ) ;
#178 = FACE_BOUND ( 'NONE', #157, .T. ) ;
#179 = ORIENTED_EDGE ( 'NONE', *, *, #113, .F. ) ;
#180 = DIRECTION ( 'NONE',  ( 3.491481338843133355E-15, -0.000000000000000000, 1.000000000000000000 ) ) ;
#181 = EDGE_CURVE ( 'NONE', #361, #361, #1, .T. ) ;
#182 = PRODUCT_DEFINITION_FORMATION_WITH_SPECIFIED_SOURCE ( 'ANY', '', #69, .NOT_KNOWN. ) ;
#183 = FACE_OUTER_BOUND ( 'NONE', #220, .T. ) ;
#184 = EDGE_LOOP ( 'NONE', ( #344 ) ) ;
#185 = CYLINDRICAL_SURFACE ( 'NONE', #104, 0.4550000000000000155 ) ;
#186 = CIRCLE ( 'NONE', #41, 1.499999999999996447 ) ;
#187 = FACE_OUTER_BOUND ( 'NONE', #66, .T. ) ;
#188 = EDGE_LOOP ( 'NONE', ( #240 ) ) ;
#189 = CALENDAR_DATE ( 2023, 27, 9 ) ;
#190 = EDGE_LOOP ( 'NONE', ( #18 ) ) ;
#191 = ADVANCED_FACE ( 'NONE', ( #124, #183 ), #197, .T. ) ;
#192 = ORIENTED_EDGE ( 'NONE', *, *, #82, .T. ) ;
#193 = PERSON_AND_ORGANIZATION_ROLE ( 'classification_officer' ) ;
#194 = APPROVAL_DATE_TIME ( #10, #290 ) ;
#195 = DIRECTION ( 'NONE',  ( 3.491481338843133355E-15, -0.000000000000000000, 1.000000000000000000 ) ) ;
#196 = CYLINDRICAL_SURFACE ( 'NONE', #20, 0.4550000000000000155 ) ;
#197 = CONICAL_SURFACE ( 'NONE', #209, 0.4550000000000000155, 1.047197551196612064 ) ;
#198 = DIRECTION ( 'NONE',  ( 1.000000000000000000, 0.000000000000000000, -3.455149780448310626E-15 ) ) ;
#199 = AXIS2_PLACEMENT_3D ( 'NONE', #29, #195, #57 ) ;
#200 = DIRECTION ( 'NONE',  ( 1.000000000000000000, 0.000000000000000000, -3.489968719595544330E-15 ) ) ;
#201 = AXIS2_PLACEMENT_3D ( 'NONE', #17, #19, #139 ) ;
#202 = VERTEX_POINT ( 'NONE', #174 ) ;
#203 = CYLINDRICAL_SURFACE ( 'NONE', #351, 0.2549999999999998934 ) ;
#204 = CARTESIAN_POINT ( 'NONE',  ( 0.4550000000000005151, 0.000000000000000000, 0.1354166666666640206 ) ) ;
#205 = AXIS2_PLACEMENT_3D ( 'NONE', #90, #84, #354 ) ;
#206 = CARTESIAN_POINT ( 'NONE',  ( 1.326762908760390423E-13, 0.000000000000000000, 38.00000000000000000 ) ) ;
#207 = ADVANCED_FACE ( 'NONE', ( #338, #100 ), #377, .T. ) ;
#208 = ORIENTED_EDGE ( 'NONE', *, *, #61, .T. ) ;
#209 = AXIS2_PLACEMENT_3D ( 'NONE', #7, #270, #210 ) ;
#210 = DIRECTION ( 'NONE',  ( -1.000000000000000000, 0.000000000000000000, 3.514721328387074684E-15 ) ) ;
#211 = EDGE_LOOP ( 'NONE', ( #97 ) ) ;
#212 = PRODUCT_RELATED_PRODUCT_CATEGORY ( 'detail', '', ( #69 ) ) ;
#213 = DIRECTION ( 'NONE',  ( 3.491481338843133355E-15, -0.000000000000000000, 1.000000000000000000 ) ) ;
#214 = DIRECTION ( 'NONE',  ( 1.000000000000000000, 0.000000000000000000, -5.782411586589388010E-15 ) ) ;
#215 = FACE_BOUND ( 'NONE', #106, .T. ) ;
#216 = EDGE_LOOP ( 'NONE', ( #129 ) ) ;
#217 = PERSON_AND_ORGANIZATION_ROLE ( 'creator' ) ;
#218 = CIRCLE ( 'NONE', #155, 0.2565358449660651297 ) ;
#219 = APPLICATION_CONTEXT ( 'configuration controlled 3d designs of mechanical parts and assemblies' ) ;
#220 = EDGE_LOOP ( 'NONE', ( #307 ) ) ;
#221 = EDGE_LOOP ( 'NONE', ( #71 ) ) ;
#222 = PERSON_AND_ORGANIZATION ( #309, #339 ) ;
#223 = DIRECTION ( 'NONE',  ( 1.000000000000000000, 0.000000000000000000, -3.489968719595544330E-15 ) ) ;
#224 = PERSON_AND_ORGANIZATION_ROLE ( 'design_supplier' ) ;
#225 = DIRECTION ( 'NONE',  ( 1.000000000000000000, 0.000000000000000000, -3.455149780448310626E-15 ) ) ;
#226 = AXIS2_PLACEMENT_3D ( 'NONE', #62, #365, #146 ) ;
#227 = ADVANCED_FACE ( 'NONE', ( #187, #304 ), #308, .F. ) ;
#228 = DIRECTION ( 'NONE',  ( 3.491481338843133355E-15, -0.000000000000000000, 1.000000000000000000 ) ) ;
#229 = VERTEX_POINT ( 'NONE', #359 ) ;
#230 = CIRCLE ( 'NONE', #314, 0.3106624327025926391 ) ;
#231 = CARTESIAN_POINT ( 'NONE',  ( 0.3106624327025934162, 0.000000000000000000, 0.2187499999999956424 ) ) ;
#232 = FACE_OUTER_BOUND ( 'NONE', #221, .T. ) ;
#233 = FACE_OUTER_BOUND ( 'NONE', #47, .T. ) ;
#234 = DIRECTION ( 'NONE',  ( 1.000000000000000000, 0.000000000000000000, -3.000481595618961472E-15 ) ) ;
#235 = CC_DESIGN_SECURITY_CLASSIFICATION ( #348, ( #182 ) ) ;
#236 = DATE_TIME_ROLE ( 'creation_date' ) ;
#237 = PERSON_AND_ORGANIZATION ( #309, #339 ) ;
#238 = ADVANCED_BREP_SHAPE_REPRESENTATION ( '953218', ( #67, #89 ), #239 ) ;
#239 =( GEOMETRIC_REPRESENTATION_CONTEXT ( 3 ) GLOBAL_UNCERTAINTY_ASSIGNED_CONTEXT ( ( #51 ) ) GLOBAL_UNIT_ASSIGNED_CONTEXT ( ( #72, #130, #250 ) ) REPRESENTATION_CONTEXT ( 'NONE', 'WORKASPACE' ) );
#240 = ORIENTED_EDGE ( 'NONE', *, *, #181, .T. ) ;
#241 = PERSON_AND_ORGANIZATION ( #309, #339 ) ;
#242 = CC_DESIGN_PERSON_AND_ORGANIZATION_ASSIGNMENT ( #166, #224, ( #182 ) ) ;
#243 = ORIENTED_EDGE ( 'NONE', *, *, #388, .F. ) ;
#244 = AXIS2_PLACEMENT_3D ( 'NONE', #60, #91, #200 ) ;
#245 = AXIS2_PLACEMENT_3D ( 'NONE', #74, #40, #158 ) ;
#246 = EDGE_LOOP ( 'NONE', ( #179 ) ) ;
#247 = CALENDAR_DATE ( 2023, 27, 9 ) ;
#248 = ADVANCED_FACE ( 'NONE', ( #371, #98 ), #49, .T. ) ;
#249 = DIRECTION ( 'NONE',  ( 1.000000000000000000, 0.000000000000000000, -4.625929269271496366E-15 ) ) ;
#250 =( NAMED_UNIT ( * ) SI_UNIT ( $, .STERADIAN. ) SOLID_ANGLE_UNIT ( ) );
#251 = DIRECTION ( 'NONE',  ( -3.491481338843133355E-15, 0.000000000000000000, -1.000000000000000000 ) ) ;
#252 = DIRECTION ( 'NONE',  ( 3.491481338843133355E-15, -0.000000000000000000, 1.000000000000000000 ) ) ;
#253 = EDGE_LOOP ( 'NONE', ( #133 ) ) ;
#254 = DIRECTION ( 'NONE',  ( -3.491481338843133355E-15, 0.000000000000000000, -1.000000000000000000 ) ) ;
#255 = EDGE_LOOP ( 'NONE', ( #42 ) ) ;
#256 = DATE_AND_TIME ( #44, #374 ) ;
#257 = EDGE_CURVE ( 'NONE', #117, #117, #297, .T. ) ;
#258 = DIRECTION ( 'NONE',  ( 3.491481338843133355E-15, -0.000000000000000000, 1.000000000000000000 ) ) ;
#259 = CYLINDRICAL_SURFACE ( 'NONE', #226, 0.3106624327025926391 ) ;
#260 = ADVANCED_FACE ( 'NONE', ( #279, #14 ), #327, .T. ) ;
#261 = DIRECTION ( 'NONE',  ( 3.491481338843133355E-15, -0.000000000000000000, 1.000000000000000000 ) ) ;
#262 = CARTESIAN_POINT ( 'NONE',  ( 0.4550000000000004041, 0.000000000000000000, 0.1145833333333330095 ) ) ;
#263 = FACE_OUTER_BOUND ( 'NONE', #211, .T. ) ;
#264 = AXIS2_PLACEMENT_3D ( 'NONE', #167, #254, #108 ) ;
#265 = VERTEX_POINT ( 'NONE', #356 ) ;
#266 = ADVANCED_FACE ( 'NONE', ( #215, #27 ), #169, .F. ) ;
#267 = APPLICATION_PROTOCOL_DEFINITION ( 'international standard', 'config_control_design', 1994, #219 ) ;
#268 = DIRECTION ( 'NONE',  ( 1.000000000000000000, 0.000000000000000000, -3.401418580346683284E-15 ) ) ;
#269 = CARTESIAN_POINT ( 'NONE',  ( 2.645864024634995824E-14, 0.000000000000000000, 7.578055753010771944 ) ) ;
#270 = DIRECTION ( 'NONE',  ( -3.491481338843133355E-15, 0.000000000000000000, -1.000000000000000000 ) ) ;
#271 = PERSON_AND_ORGANIZATION ( #309, #339 ) ;
#272 = CC_DESIGN_DATE_AND_TIME_ASSIGNMENT ( #256, #384, ( #348 ) ) ;
#273 = EDGE_LOOP ( 'NONE', ( #107 ) ) ;
#274 = CALENDAR_DATE ( 2023, 27, 9 ) ;
#275 = LOCAL_TIME ( 7, 49, 4.000000000000000000, #34 ) ;
#276 = DIRECTION ( 'NONE',  ( 1.000000000000000000, 0.000000000000000000, -3.491481338843133355E-15 ) ) ;
#277 = EDGE_CURVE ( 'NONE', #202, #202, #143, .T. ) ;
#278 = ORIENTED_EDGE ( 'NONE', *, *, #93, .F. ) ;
#279 = FACE_BOUND ( 'NONE', #131, .T. ) ;
#280 = DIRECTION ( 'NONE',  ( 3.491481338843133355E-15, -0.000000000000000000, 1.000000000000000000 ) ) ;
#281 = APPROVAL_ROLE ( '' ) ;
#282 = DIRECTION ( 'NONE',  ( 1.000000000000000000, 0.000000000000000000, 0.000000000000000000 ) ) ;
#283 = AXIS2_PLACEMENT_3D ( 'NONE', #3, #355, #115 ) ;
#284 = CC_DESIGN_PERSON_AND_ORGANIZATION_ASSIGNMENT ( #271, #120, ( #69 ) ) ;
#285 = EDGE_LOOP ( 'NONE', ( #65 ) ) ;
#286 = AXIS2_PLACEMENT_3D ( 'NONE', #287, #380, #214 ) ;
#287 = CARTESIAN_POINT ( 'NONE',  ( 1.326762908760390423E-13, 0.000000000000000000, 38.00000000000000000 ) ) ;
#288 = CIRCLE ( 'NONE', #6, 0.4550000000000000155 ) ;
#289 = FACE_OUTER_BOUND ( 'NONE', #190, .T. ) ;
#290 = APPROVAL ( #112, 'UNSPECIFIED' ) ;
#291 = CARTESIAN_POINT ( 'NONE',  ( 0.3106624327025936383, 0.000000000000000000, 0.2812499999999956701 ) ) ;
#292 = CARTESIAN_POINT ( 'NONE',  ( 1.500000000000127898, 0.000000000000000000, 37.69999999999998863 ) ) ;
#293 = DIRECTION ( 'NONE',  ( 3.491481338843133355E-15, -0.000000000000000000, 1.000000000000000000 ) ) ;
#294 = VERTEX_POINT ( 'NONE', #150 ) ;
#295 = DIRECTION ( 'NONE',  ( -3.491481338843133355E-15, 0.000000000000000000, -1.000000000000000000 ) ) ;
#296 = CC_DESIGN_PERSON_AND_ORGANIZATION_ASSIGNMENT ( #222, #217, ( #182 ) ) ;
#297 = CIRCLE ( 'NONE', #245, 0.2550000000000000044 ) ;
#298 = DIRECTION ( 'NONE',  ( 3.491481338843133355E-15, -0.000000000000000000, 1.000000000000000000 ) ) ;
#299 = PLANE ( 'NONE',  #337 ) ;
#300 = ORIENTED_EDGE ( 'NONE', *, *, #362, .T. ) ;
#301 = ORIENTED_EDGE ( 'NONE', *, *, #317, .F. ) ;
#302 = EDGE_CURVE ( 'NONE', #294, #294, #137, .T. ) ;
#303 = EDGE_LOOP ( 'NONE', ( #300 ) ) ;
#304 = FACE_OUTER_BOUND ( 'NONE', #188, .T. ) ;
#305 = APPROVAL_ROLE ( '' ) ;
#306 = AXIS2_PLACEMENT_3D ( 'NONE', #135, #251, #381 ) ;
#307 = ORIENTED_EDGE ( 'NONE', *, *, #93, .T. ) ;
#308 = TOROIDAL_SURFACE ( 'NONE', #111, 1.254999999999999893, 1.000000000000000000 ) ;
#309 = PERSON ( 'UNSPECIFIED', 'UNSPECIFIED', 'UNSPECIFIED', ('UNSPECIFIED'), ('UNSPECIFIED'), ('UNSPECIFIED') ) ;
#310 = CARTESIAN_POINT ( 'NONE',  ( 1.326762908760390423E-13, 0.000000000000000000, 38.00000000000000000 ) ) ;
#311 = LOCAL_TIME ( 7, 49, 4.000000000000000000, #15 ) ;
#312 = EDGE_LOOP ( 'NONE', ( #315 ) ) ;
#313 = ORIENTED_EDGE ( 'NONE', *, *, #257, .F. ) ;
#314 = AXIS2_PLACEMENT_3D ( 'NONE', #331, #110, #368 ) ;
#315 = ORIENTED_EDGE ( 'NONE', *, *, #378, .F. ) ;
#316 = DATE_AND_TIME ( #189, #16 ) ;
#317 = EDGE_CURVE ( 'NONE', #265, #265, #68, .T. ) ;
#318 = APPROVAL_DATE_TIME ( #316, #173 ) ;
#319 = FACE_OUTER_BOUND ( 'NONE', #373, .T. ) ;
#320 = VERTEX_POINT ( 'NONE', #204 ) ;
#321 = VERTEX_POINT ( 'NONE', #170 ) ;
#322 = DIRECTION ( 'NONE',  ( 0.000000000000000000, 0.000000000000000000, 1.000000000000000000 ) ) ;
#323 = CARTESIAN_POINT ( 'NONE',  ( 1.745740669421568255E-15, 0.000000000000000000, 0.5000000000000004441 ) ) ;
#324 = DIRECTION ( 'NONE',  ( 1.000000000000000000, 0.000000000000000000, -3.491481338843133355E-15 ) ) ;
#325 = CARTESIAN_POINT ( 'NONE',  ( 1.067980961487340868E-14, 0.000000000000000000, 3.058819045102516121 ) ) ;
#326 = DIRECTION ( 'NONE',  ( 3.491481338843133355E-15, -0.000000000000000000, 1.000000000000000000 ) ) ;
#327 = CONICAL_SURFACE ( 'NONE', #306, 1.499999999999996447, 0.7853981633974501664 ) ;
#328 = DIRECTION ( 'NONE',  ( 1.000000000000000000, 0.000000000000000000, -3.489968719595545908E-15 ) ) ;
#329 = CARTESIAN_POINT ( 'NONE',  ( 0.2890741737109405185, 0.000000000000000000, 3.058819045102515233 ) ) ;
#330 = CIRCLE ( 'NONE', #244, 0.3106624327025926946 ) ;
#331 = CARTESIAN_POINT ( 'NONE',  ( 7.637615428719239830E-16, 0.000000000000000000, 0.2187499999999967248 ) ) ;
#332 = EDGE_LOOP ( 'NONE', ( #162 ) ) ;
#333 = PRODUCT_DEFINITION_SHAPE ( 'NONE', 'NONE',  #39 ) ;
#334 = CLOSED_SHELL ( 'NONE', ( #138, #207, #55, #191, #96, #132, #393, #248, #352, #266, #128, #227, #123, #335, #260, #165 ) ) ;
#335 = ADVANCED_FACE ( 'NONE', ( #168, #233 ), #122, .T. ) ;
#336 = CC_DESIGN_APPROVAL ( #372, ( #39 ) ) ;
#337 = AXIS2_PLACEMENT_3D ( 'NONE', #4, #295, #149 ) ;
#338 = FACE_OUTER_BOUND ( 'NONE', #332, .T. ) ;
#339 = ORGANIZATION ( 'UNSPECIFIED', 'UNSPECIFIED', '' ) ;
#340 = EDGE_LOOP ( 'NONE', ( #385 ) ) ;
#341 = AXIS2_PLACEMENT_3D ( 'NONE', #269, #53, #119 ) ;
#342 = FACE_OUTER_BOUND ( 'NONE', #73, .T. ) ;
#343 = DIRECTION ( 'NONE',  ( 1.000000000000000000, 0.000000000000000000, -3.491481338843133355E-15 ) ) ;
#344 = ORIENTED_EDGE ( 'NONE', *, *, #11, .F. ) ;
#345 = CIRCLE ( 'NONE', #286, 1.199999999999993516 ) ;
#346 = CC_DESIGN_PERSON_AND_ORGANIZATION_ASSIGNMENT ( #114, #193, ( #348 ) ) ;
#347 = COORDINATED_UNIVERSAL_TIME_OFFSET ( 1, 0, .AHEAD. ) ;
#348 = SECURITY_CLASSIFICATION ( '', '', #386 ) ;
#349 = EDGE_LOOP ( 'NONE', ( #301 ) ) ;
#350 = ORIENTED_EDGE ( 'NONE', *, *, #378, .T. ) ;
#351 = AXIS2_PLACEMENT_3D ( 'NONE', #206, #293, #176 ) ;
#352 = ADVANCED_FACE ( 'NONE', ( #148, #289 ), #259, .T. ) ;
#353 = CARTESIAN_POINT ( 'NONE',  ( -4.882694622175676086E-33, 0.000000000000000000, -1.398459320934966526E-18 ) ) ;
#354 = DIRECTION ( 'NONE',  ( -1.000000000000000000, 0.000000000000000000, 3.491481338843133355E-15 ) ) ;
#355 = DIRECTION ( 'NONE',  ( 3.491481338843133355E-15, -0.000000000000000000, 1.000000000000000000 ) ) ;
#356 = CARTESIAN_POINT ( 'NONE',  ( 0.3106624327025943044, 0.000000000000000000, 0.4687499999999958367 ) ) ;
#357 = CARTESIAN_POINT ( 'NONE',  ( 9.776147748760773395E-15, 0.000000000000000000, 2.799999999999999822 ) ) ;
#358 = VERTEX_POINT ( 'NONE', #127 ) ;
#359 = CARTESIAN_POINT ( 'NONE',  ( 0.3106624327025943044, 0.000000000000000000, 0.4999999999999993339 ) ) ;
#360 = MECHANICAL_CONTEXT ( 'NONE', #103, 'mechanical' ) ;
#361 = VERTEX_POINT ( 'NONE', #392 ) ;
#362 = EDGE_CURVE ( 'NONE', #321, #321, #288, .T. ) ;
#363 = FACE_OUTER_BOUND ( 'NONE', #216, .T. ) ;
#364 = CALENDAR_DATE ( 2023, 27, 9 ) ;
#365 = DIRECTION ( 'NONE',  ( 3.491481338843133355E-15, -0.000000000000000000, 1.000000000000000000 ) ) ;
#366 = PERSON_AND_ORGANIZATION_ROLE ( 'creator' ) ;
#367 = CIRCLE ( 'NONE', #391, 0.2890741737109298048 ) ;
#368 = DIRECTION ( 'NONE',  ( 1.000000000000000000, 0.000000000000000000, -3.489968719595545119E-15 ) ) ;
#369 = AXIS2_PLACEMENT_3D ( 'NONE', #152, #261, #225 ) ;
#370 = CARTESIAN_POINT ( 'NONE',  ( 0.000000000000000000, 0.000000000000000000, 0.000000000000000000 ) ) ;
#371 = FACE_BOUND ( 'NONE', #349, .T. ) ;
#372 = APPROVAL ( #375, 'UNSPECIFIED' ) ;
#373 = EDGE_LOOP ( 'NONE', ( #50 ) ) ;
#374 = LOCAL_TIME ( 7, 49, 4.000000000000000000, #43 ) ;
#375 = APPROVAL_STATUS ( 'not_yet_approved' ) ;
#376 = CONICAL_SURFACE ( 'NONE', #63, 0.3106624327025926946, 1.047197551196575871 ) ;
#377 = CONICAL_SURFACE ( 'NONE', #163, 0.2565358449660651297, 1.047197551196595189 ) ;
#378 = EDGE_CURVE ( 'NONE', #229, #229, #141, .T. ) ;
#379 = EDGE_LOOP ( 'NONE', ( #92 ) ) ;
#380 = DIRECTION ( 'NONE',  ( 3.491481338843133355E-15, -0.000000000000000000, 1.000000000000000000 ) ) ;
#381 = DIRECTION ( 'NONE',  ( -1.000000000000000000, 0.000000000000000000, 4.625929269271496366E-15 ) ) ;
#382 = APPROVAL_DATE_TIME ( #22, #372 ) ;
#383 = DIRECTION ( 'NONE',  ( 3.491481338843133355E-15, -0.000000000000000000, 1.000000000000000000 ) ) ;
#384 = DATE_TIME_ROLE ( 'classification_date' ) ;
#385 = ORIENTED_EDGE ( 'NONE', *, *, #32, .T. ) ;
#386 = SECURITY_CLASSIFICATION_LEVEL ( 'unclassified' ) ;
#387 = FACE_OUTER_BOUND ( 'NONE', #253, .T. ) ;
#388 = EDGE_CURVE ( 'NONE', #175, #175, #367, .T. ) ;
#389 = FACE_OUTER_BOUND ( 'NONE', #285, .T. ) ;
#390 = VERTEX_POINT ( 'NONE', #25 ) ;
#391 = AXIS2_PLACEMENT_3D ( 'NONE', #325, #228, #171 ) ;
#392 = CARTESIAN_POINT ( 'NONE',  ( 0.2550000000000095524, 0.000000000000000000, 2.799999999999996270 ) ) ;
#393 = ADVANCED_FACE ( 'NONE', ( #319, #24 ), #196, .T. ) ;
#394 = VERTEX_POINT ( 'NONE', #291 ) ;
#395 = AXIS2_PLACEMENT_3D ( 'NONE', #21, #153, #2 ) ;
ENDSEC;
END-ISO-10303-21;
