ISO-10303-21;
HEADER;
FILE_DESCRIPTION (( 'STEP AP203' ),
    '1' );
FILE_NAME ('953217.step',
    '2023-09-27T05:49:03',
    ( '' ),
    ( '' ),
    'SwSTEP 2.0',
    'SolidWorks 2022',
    '' );
FILE_SCHEMA (( 'CONFIG_CONTROL_DESIGN' ));
ENDSEC;

DATA;
#1 = AXIS2_PLACEMENT_3D ( 'NONE', #69, #216, #246 ) ;
#2 = CARTESIAN_POINT ( 'NONE',  ( 1.745740669421568255E-15, 0.000000000000000000, 0.5000000000000004441 ) ) ;
#3 = CC_DESIGN_PERSON_AND_ORGANIZATION_ASSIGNMENT ( #378, #350, ( #304 ) ) ;
#4 = EDGE_LOOP ( 'NONE', ( #162 ) ) ;
#5 = ORIENTED_EDGE ( 'NONE', *, *, #178, .T. ) ;
#6 = DIRECTION ( 'NONE',  ( 3.491481338843133355E-15, -0.000000000000000000, 1.000000000000000000 ) ) ;
#7 = DIRECTION ( 'NONE',  ( 3.491481338843133355E-15, -0.000000000000000000, 1.000000000000000000 ) ) ;
#8 = DIRECTION ( 'NONE',  ( 3.491481338843133355E-15, -0.000000000000000000, 1.000000000000000000 ) ) ;
#9 = DIRECTION ( 'NONE',  ( 1.000000000000000000, 0.000000000000000000, -2.710505431213764635E-15 ) ) ;
#10 = DIRECTION ( 'NONE',  ( 1.000000000000000000, 0.000000000000000000, -4.469228034845714395E-15 ) ) ;
#11 = CARTESIAN_POINT ( 'NONE',  ( 1.326762908760390423E-13, 0.000000000000000000, 38.00000000000000000 ) ) ;
#12 = CIRCLE ( 'NONE', #351, 1.199999999999993516 ) ;
#13 = VERTEX_POINT ( 'NONE', #250 ) ;
#14 = CARTESIAN_POINT ( 'NONE',  ( 0.1600000000000017519, 0.000000000000000000, 0.4999999999999998890 ) ) ;
#15 = SECURITY_CLASSIFICATION_LEVEL ( 'unclassified' ) ;
#16 = CYLINDRICAL_SURFACE ( 'NONE', #129, 0.3549999999999999267 ) ;
#17 = CC_DESIGN_PERSON_AND_ORGANIZATION_ASSIGNMENT ( #67, #184, ( #206 ) ) ;
#18 = CALENDAR_DATE ( 2023, 27, 9 ) ;
#19 = DIRECTION ( 'NONE',  ( -1.000000000000000000, 0.000000000000000000, 3.512204220727690448E-15 ) ) ;
#20 = VERTEX_POINT ( 'NONE', #68 ) ;
#21 = ADVANCED_FACE ( 'NONE', ( #362 ), #269, .F. ) ;
#22 = AXIS2_PLACEMENT_3D ( 'NONE', #177, #306, #182 ) ;
#23 = AXIS2_PLACEMENT_3D ( 'NONE', #241, #32, #305 ) ;
#24 = EDGE_LOOP ( 'NONE', ( #268 ) ) ;
#25 = FACE_OUTER_BOUND ( 'NONE', #52, .T. ) ;
#26 = ORIENTED_EDGE ( 'NONE', *, *, #77, .T. ) ;
#27 = EDGE_LOOP ( 'NONE', ( #200 ) ) ;
#28 = DIRECTION ( 'NONE',  ( -3.491481338843133355E-15, 0.000000000000000000, -1.000000000000000000 ) ) ;
#29 = CIRCLE ( 'NONE', #301, 0.3549999999999999267 ) ;
#30 = EDGE_LOOP ( 'NONE', ( #31 ) ) ;
#31 = ORIENTED_EDGE ( 'NONE', *, *, #228, .F. ) ;
#32 = DIRECTION ( 'NONE',  ( 3.491481338843133355E-15, -0.000000000000000000, 1.000000000000000000 ) ) ;
#33 = EDGE_CURVE ( 'NONE', #191, #191, #38, .T. ) ;
#34 = DIRECTION ( 'NONE',  ( 3.491481338843133355E-15, -0.000000000000000000, 1.000000000000000000 ) ) ;
#35 = AXIS2_PLACEMENT_3D ( 'NONE', #47, #76, #381 ) ;
#36 = FACE_OUTER_BOUND ( 'NONE', #153, .T. ) ;
#37 = AXIS2_PLACEMENT_3D ( 'NONE', #209, #116, #10 ) ;
#38 = CIRCLE ( 'NONE', #101, 0.1600000000000000033 ) ;
#39 = DIRECTION ( 'NONE',  ( 1.000000000000000000, 0.000000000000000000, -3.469446951953614189E-15 ) ) ;
#40 = DIRECTION ( 'NONE',  ( 1.000000000000000000, 0.000000000000000000, -5.782411586589388010E-15 ) ) ;
#41 = VERTEX_POINT ( 'NONE', #291 ) ;
#42 = FACE_OUTER_BOUND ( 'NONE', #24, .T. ) ;
#43 = PERSON_AND_ORGANIZATION ( #293, #104 ) ;
#44 = DIRECTION ( 'NONE',  ( 1.000000000000000000, 0.000000000000000000, -3.491481338843133355E-15 ) ) ;
#45 = LOCAL_TIME ( 7, 49, 3.000000000000000000, #95 ) ;
#46 = FACE_OUTER_BOUND ( 'NONE', #4, .T. ) ;
#47 = CARTESIAN_POINT ( 'NONE',  ( 4.000655700757801179E-16, 0.000000000000000000, 0.1145833333333345916 ) ) ;
#48 = ORIENTED_EDGE ( 'NONE', *, *, #264, .T. ) ;
#49 = ORIENTED_EDGE ( 'NONE', *, *, #33, .T. ) ;
#50 = APPLICATION_CONTEXT ( 'configuration controlled 3d designs of mechanical parts and assemblies' ) ;
#51 = CLOSED_SHELL ( 'NONE', ( #189, #194, #322, #390, #151, #332, #358, #339, #97, #117, #297, #123, #132, #82, #59, #21 ) ) ;
#52 = EDGE_LOOP ( 'NONE', ( #363 ) ) ;
#53 = ORIENTED_EDGE ( 'NONE', *, *, #348, .T. ) ;
#54 = APPROVAL ( #290, 'UNSPECIFIED' ) ;
#55 = FACE_OUTER_BOUND ( 'NONE', #329, .T. ) ;
#56 =( GEOMETRIC_REPRESENTATION_CONTEXT ( 3 ) GLOBAL_UNCERTAINTY_ASSIGNED_CONTEXT ( ( #134 ) ) GLOBAL_UNIT_ASSIGNED_CONTEXT ( ( #131, #249, #119 ) ) REPRESENTATION_CONTEXT ( 'NONE', 'WORKASPACE' ) );
#57 = FACE_OUTER_BOUND ( 'NONE', #230, .T. ) ;
#58 = FACE_BOUND ( 'NONE', #27, .T. ) ;
#59 = ADVANCED_FACE ( 'NONE', ( #81, #357 ), #294, .T. ) ;
#60 = DIRECTION ( 'NONE',  ( 1.000000000000000000, 0.000000000000000000, 0.000000000000000000 ) ) ;
#61 = APPROVAL_ROLE ( '' ) ;
#62 = CARTESIAN_POINT ( 'NONE',  ( 8.030407079339217761E-15, 0.000000000000000000, 2.300000000000003375 ) ) ;
#63 = AXIS2_PLACEMENT_3D ( 'NONE', #103, #321, #355 ) ;
#64 = CC_DESIGN_DATE_AND_TIME_ASSIGNMENT ( #158, #72, ( #304 ) ) ;
#65 = DIRECTION ( 'NONE',  ( 1.000000000000000000, 0.000000000000000000, -3.491481338843133355E-15 ) ) ;
#66 = FACE_OUTER_BOUND ( 'NONE', #359, .T. ) ;
#67 = PERSON_AND_ORGANIZATION ( #293, #104 ) ;
#68 = CARTESIAN_POINT ( 'NONE',  ( 0.3550000000000004263, 0.000000000000000000, 0.1354166666666643815 ) ) ;
#69 = CARTESIAN_POINT ( 'NONE',  ( 0.000000000000000000, 0.000000000000000000, 0.000000000000000000 ) ) ;
#70 = CIRCLE ( 'NONE', #22, 0.2106624327025926058 ) ;
#71 = FACE_OUTER_BOUND ( 'NONE', #298, .T. ) ;
#72 = DATE_TIME_ROLE ( 'creation_date' ) ;
#73 = VERTEX_POINT ( 'NONE', #130 ) ;
#74 = APPROVAL_ROLE ( '' ) ;
#75 = CARTESIAN_POINT ( 'NONE',  ( 1.200000000000126299, 0.000000000000000000, 37.99999999999999289 ) ) ;
#76 = DIRECTION ( 'NONE',  ( 3.491481338843133355E-15, -0.000000000000000000, 1.000000000000000000 ) ) ;
#77 = EDGE_CURVE ( 'NONE', #126, #126, #366, .T. ) ;
#78 = CIRCLE ( 'NONE', #303, 1.500000000000000000 ) ;
#79 = ORIENTED_EDGE ( 'NONE', *, *, #315, .T. ) ;
#80 = DIRECTION ( 'NONE',  ( 1.000000000000000000, 0.000000000000000000, -4.625929269271490844E-15 ) ) ;
#81 = FACE_BOUND ( 'NONE', #30, .T. ) ;
#82 = ADVANCED_FACE ( 'NONE', ( #55, #25 ), #174, .T. ) ;
#83 = DIRECTION ( 'NONE',  ( -1.000000000000000000, 0.000000000000000000, 4.625929269271496366E-15 ) ) ;
#84 = EDGE_LOOP ( 'NONE', ( #49 ) ) ;
#85 = EDGE_LOOP ( 'NONE', ( #167 ) ) ;
#86 = EDGE_LOOP ( 'NONE', ( #139 ) ) ;
#87 = TOROIDAL_SURFACE ( 'NONE', #314, 1.159999999999999698, 1.000000000000000000 ) ;
#88 = DIRECTION ( 'NONE',  ( 1.000000000000000000, 0.000000000000000000, -3.512204220727691237E-15 ) ) ;
#89 = DIRECTION ( 'NONE',  ( 3.491481338843133355E-15, -0.000000000000000000, 1.000000000000000000 ) ) ;
#90 = CARTESIAN_POINT ( 'NONE',  ( 0.000000000000000000, 0.000000000000000000, 0.000000000000000000 ) ) ;
#91 = AXIS2_PLACEMENT_3D ( 'NONE', #292, #186, #19 ) ;
#92 = DIRECTION ( 'NONE',  ( 1.000000000000000000, 0.000000000000000000, -3.473977097097809748E-15 ) ) ;
#93 = MECHANICAL_CONTEXT ( 'NONE', #50, 'mechanical' ) ;
#94 = FACE_OUTER_BOUND ( 'NONE', #86, .T. ) ;
#95 = COORDINATED_UNIVERSAL_TIME_OFFSET ( 1, 0, .AHEAD. ) ;
#96 = CARTESIAN_POINT ( 'NONE',  ( 0.2106624327025943821, 0.000000000000000000, 0.4999999999999996669 ) ) ;
#97 = ADVANCED_FACE ( 'NONE', ( #111, #57 ), #393, .T. ) ;
#98 = CONICAL_SURFACE ( 'NONE', #387, 0.3549999999999999267, 1.047197551196611842 ) ;
#99 = CARTESIAN_POINT ( 'NONE',  ( 1.500000000000127898, 0.000000000000000000, 37.69999999999998863 ) ) ;
#100 = CIRCLE ( 'NONE', #201, 0.3549999999999999822 ) ;
#101 = AXIS2_PLACEMENT_3D ( 'NONE', #2, #324, #259 ) ;
#102 = CARTESIAN_POINT ( 'NONE',  ( 0.2106624327025935772, 0.000000000000000000, 0.2812499999999960032 ) ) ;
#103 = CARTESIAN_POINT ( 'NONE',  ( 1.326762908760390423E-13, 0.000000000000000000, 38.00000000000000000 ) ) ;
#104 = ORGANIZATION ( 'UNSPECIFIED', 'UNSPECIFIED', '' ) ;
#105 = VERTEX_POINT ( 'NONE', #227 ) ;
#106 = EDGE_LOOP ( 'NONE', ( #300 ) ) ;
#107 = ORIENTED_EDGE ( 'NONE', *, *, #77, .F. ) ;
#108 = EDGE_CURVE ( 'NONE', #20, #20, #100, .T. ) ;
#109 = CARTESIAN_POINT ( 'NONE',  ( 1.316288464743861212E-13, 0.000000000000000000, 37.69999999999999574 ) ) ;
#110 = EDGE_LOOP ( 'NONE', ( #389 ) ) ;
#111 = FACE_OUTER_BOUND ( 'NONE', #282, .T. ) ;
#112 = APPROVAL_DATE_TIME ( #270, #137 ) ;
#113 = CARTESIAN_POINT ( 'NONE',  ( 4.008863400609418306E-34, 0.000000000000000000, 1.148184112001502094E-19 ) ) ;
#114 = AXIS2_PLACEMENT_3D ( 'NONE', #247, #310, #145 ) ;
#115 = DIRECTION ( 'NONE',  ( 1.000000000000000000, 0.000000000000000000, -4.469228034845714395E-15 ) ) ;
#116 = DIRECTION ( 'NONE',  ( 3.491481338843133355E-15, -0.000000000000000000, 1.000000000000000000 ) ) ;
#117 = ADVANCED_FACE ( 'NONE', ( #58, #171 ), #168, .F. ) ;
#118 = DIRECTION ( 'NONE',  ( 3.491481338843133355E-15, -0.000000000000000000, 1.000000000000000000 ) ) ;
#119 =( NAMED_UNIT ( * ) SI_UNIT ( $, .STERADIAN. ) SOLID_ANGLE_UNIT ( ) );
#120 = CIRCLE ( 'NONE', #35, 0.3549999999999999822 ) ;
#121 = DIRECTION ( 'NONE',  ( 3.491481338843133355E-15, -0.000000000000000000, 1.000000000000000000 ) ) ;
#122 = AXIS2_PLACEMENT_3D ( 'NONE', #62, #340, #9 ) ;
#123 = ADVANCED_FACE ( 'NONE', ( #36, #179 ), #87, .F. ) ;
#124 = CARTESIAN_POINT ( 'NONE',  ( 1.326762908760390423E-13, 0.000000000000000000, 38.00000000000000000 ) ) ;
#125 = APPROVAL_STATUS ( 'not_yet_approved' ) ;
#126 = VERTEX_POINT ( 'NONE', #96 ) ;
#127 = MANIFOLD_SOLID_BREP ( 'Corps-Déplacer/Copier1', #51 ) ;
#128 = DATE_AND_TIME ( #344, #338 ) ;
#129 = AXIS2_PLACEMENT_3D ( 'NONE', #124, #316, #356 ) ;
#130 = CARTESIAN_POINT ( 'NONE',  ( 0.2106624327025934107, 0.000000000000000000, 0.2187499999999960032 ) ) ;
#131 =( LENGTH_UNIT ( ) NAMED_UNIT ( * ) SI_UNIT ( .MILLI., .METRE. ) );
#132 = ADVANCED_FACE ( 'NONE', ( #278, #275 ), #368, .T. ) ;
#133 = VERTEX_POINT ( 'NONE', #313 ) ;
#134 = UNCERTAINTY_MEASURE_WITH_UNIT (LENGTH_MEASURE( 1.000000000000000082E-05 ), #131, 'distance_accuracy_value', 'NONE');
#135 = VERTEX_POINT ( 'NONE', #258 ) ;
#136 = EDGE_LOOP ( 'NONE', ( #53 ) ) ;
#137 = APPROVAL ( #335, 'UNSPECIFIED' ) ;
#138 = CARTESIAN_POINT ( 'NONE',  ( 1.326762908760390423E-13, 1.199999999999993516, 38.00000000000000000 ) ) ;
#139 = ORIENTED_EDGE ( 'NONE', *, *, #283, .T. ) ;
#140 = CC_DESIGN_APPROVAL ( #137, ( #233 ) ) ;
#141 = EDGE_CURVE ( 'NONE', #252, #252, #199, .T. ) ;
#142 = EDGE_LOOP ( 'NONE', ( #203 ) ) ;
#143 = COORDINATED_UNIVERSAL_TIME_OFFSET ( 1, 0, .AHEAD. ) ;
#144 = CARTESIAN_POINT ( 'NONE',  ( 8.030407079339206717E-15, 0.000000000000000000, 2.299999999999999822 ) ) ;
#145 = DIRECTION ( 'NONE',  ( 1.000000000000000000, 0.000000000000000000, -4.625929269271496366E-15 ) ) ;
#146 = AXIS2_PLACEMENT_3D ( 'NONE', #157, #384, #44 ) ;
#147 = AXIS2_PLACEMENT_3D ( 'NONE', #231, #365, #198 ) ;
#148 = FACE_OUTER_BOUND ( 'NONE', #263, .T. ) ;
#149 = DIRECTION ( 'NONE',  ( 1.000000000000000000, 0.000000000000000000, -3.512204220727691237E-15 ) ) ;
#150 = DIRECTION ( 'NONE',  ( 1.000000000000000000, 0.000000000000000000, -3.491481338843132961E-15 ) ) ;
#151 = ADVANCED_FACE ( 'NONE', ( #66, #94 ), #272, .T. ) ;
#152 = FACE_OUTER_BOUND ( 'NONE', #85, .T. ) ;
#153 = EDGE_LOOP ( 'NONE', ( #295 ) ) ;
#154 = FACE_OUTER_BOUND ( 'NONE', #232, .T. ) ;
#155 = PERSON_AND_ORGANIZATION_ROLE ( 'creator' ) ;
#156 = EDGE_LOOP ( 'NONE', ( #361 ) ) ;
#157 = CARTESIAN_POINT ( 'NONE',  ( 0.000000000000000000, 0.000000000000000000, 0.000000000000000000 ) ) ;
#158 = DATE_AND_TIME ( #218, #45 ) ;
#159 = CC_DESIGN_SECURITY_CLASSIFICATION ( #233, ( #163 ) ) ;
#160 = DIRECTION ( 'NONE',  ( 3.491481338843133355E-15, -0.000000000000000000, 1.000000000000000000 ) ) ;
#161 = CARTESIAN_POINT ( 'NONE',  ( 9.819791265496200149E-16, 0.000000000000000000, 0.2812499999999967804 ) ) ;
#162 = ORIENTED_EDGE ( 'NONE', *, *, #271, .F. ) ;
#163 = PRODUCT_DEFINITION_FORMATION_WITH_SPECIFIED_SOURCE ( 'ANY', '', #206, .NOT_KNOWN. ) ;
#164 = CC_DESIGN_PERSON_AND_ORGANIZATION_ASSIGNMENT ( #346, #319, ( #163 ) ) ;
#165 = EDGE_LOOP ( 'NONE', ( #325 ) ) ;
#166 = CONICAL_SURFACE ( 'NONE', #175, 0.1565358449660652629, 1.047197551196594745 ) ;
#167 = ORIENTED_EDGE ( 'NONE', *, *, #271, .T. ) ;
#168 = PLANE ( 'NONE',  #267 ) ;
#169 = DATE_AND_TIME ( #196, #395 ) ;
#170 = EDGE_LOOP ( 'NONE', ( #26 ) ) ;
#171 = FACE_OUTER_BOUND ( 'NONE', #170, .T. ) ;
#172 = EDGE_CURVE ( 'NONE', #217, #217, #279, .T. ) ;
#173 = ORIENTED_EDGE ( 'NONE', *, *, #315, .F. ) ;
#174 = CYLINDRICAL_SURFACE ( 'NONE', #388, 1.499999999999998224 ) ;
#175 = AXIS2_PLACEMENT_3D ( 'NONE', #90, #8, #65 ) ;
#176 = FACE_BOUND ( 'NONE', #136, .T. ) ;
#177 = CARTESIAN_POINT ( 'NONE',  ( 1.636631877582708111E-15, 0.000000000000000000, 0.4687499999999969469 ) ) ;
#178 = EDGE_CURVE ( 'NONE', #379, #379, #375, .T. ) ;
#179 = FACE_OUTER_BOUND ( 'NONE', #110, .T. ) ;
#180 = AXIS2_PLACEMENT_3D ( 'NONE', #345, #34, #60 ) ;
#181 = CARTESIAN_POINT ( 'NONE',  ( 2.595078622320132345E-14, 0.000000000000000000, 7.432600579729820467 ) ) ;
#182 = DIRECTION ( 'NONE',  ( 1.000000000000000000, 0.000000000000000000, -3.602642915508840499E-15 ) ) ;
#183 = PRODUCT_RELATED_PRODUCT_CATEGORY ( 'detail', '', ( #206 ) ) ;
#184 = PERSON_AND_ORGANIZATION_ROLE ( 'design_owner' ) ;
#185 = VERTEX_POINT ( 'NONE', #281 ) ;
#186 = DIRECTION ( 'NONE',  ( -3.491481338843133355E-15, 0.000000000000000000, -1.000000000000000000 ) ) ;
#187 = PERSON_AND_ORGANIZATION ( #293, #104 ) ;
#188 = CARTESIAN_POINT ( 'NONE',  ( 0.1600000000000078026, 0.000000000000000000, 2.300000000000002931 ) ) ;
#189 = ADVANCED_FACE ( 'NONE', ( #273 ), #308, .F. ) ;
#190 = VERTEX_POINT ( 'NONE', #352 ) ;
#191 = VERTEX_POINT ( 'NONE', #14 ) ;
#192 = AXIS2_PLACEMENT_3D ( 'NONE', #239, #376, #115 ) ;
#193 = ORIENTED_EDGE ( 'NONE', *, *, #108, .F. ) ;
#194 = ADVANCED_FACE ( 'NONE', ( #148, #176 ), #166, .T. ) ;
#195 = LOCAL_TIME ( 7, 49, 3.000000000000000000, #214 ) ;
#196 = CALENDAR_DATE ( 2023, 27, 9 ) ;
#197 = ORIENTED_EDGE ( 'NONE', *, *, #172, .F. ) ;
#198 = DIRECTION ( 'NONE',  ( 1.000000000000000000, 0.000000000000000000, 0.000000000000000000 ) ) ;
#199 = CIRCLE ( 'NONE', #122, 0.1599999999999997813 ) ;
#200 = ORIENTED_EDGE ( 'NONE', *, *, #33, .F. ) ;
#201 = AXIS2_PLACEMENT_3D ( 'NONE', #330, #302, #334 ) ;
#202 = CARTESIAN_POINT ( 'NONE',  ( 1.326762908760390423E-13, 0.000000000000000000, 38.00000000000000000 ) ) ;
#203 = ORIENTED_EDGE ( 'NONE', *, *, #283, .F. ) ;
#204 = DATE_TIME_ROLE ( 'classification_date' ) ;
#205 = PERSON_AND_ORGANIZATION ( #293, #104 ) ;
#206 = PRODUCT ( '953217', '953217', '', ( #93 ) ) ;
#207 = SHAPE_DEFINITION_REPRESENTATION ( #237, #307 ) ;
#208 = CC_DESIGN_PERSON_AND_ORGANIZATION_ASSIGNMENT ( #253, #380, ( #233 ) ) ;
#209 = CARTESIAN_POINT ( 'NONE',  ( 8.934068945451840430E-15, 0.000000000000000000, 2.558819045102515677 ) ) ;
#210 = CC_DESIGN_APPROVAL ( #54, ( #163 ) ) ;
#211 = DIRECTION ( 'NONE',  ( -1.000000000000000000, 0.000000000000000000, 3.491481338843133355E-15 ) ) ;
#212 = APPROVAL_ROLE ( '' ) ;
#213 = FACE_OUTER_BOUND ( 'NONE', #84, .T. ) ;
#214 = COORDINATED_UNIVERSAL_TIME_OFFSET ( 1, 0, .AHEAD. ) ;
#215 = DIRECTION ( 'NONE',  ( 3.491481338843133355E-15, -0.000000000000000000, 1.000000000000000000 ) ) ;
#216 = DIRECTION ( 'NONE',  ( 0.000000000000000000, 0.000000000000000000, 1.000000000000000000 ) ) ;
#217 = VERTEX_POINT ( 'NONE', #102 ) ;
#218 = CALENDAR_DATE ( 2023, 27, 9 ) ;
#219 = CIRCLE ( 'NONE', #235, 0.2106624327025926335 ) ;
#220 = CONICAL_SURFACE ( 'NONE', #91, 0.3549999999999999822, 1.047197551196612064 ) ;
#221 = AXIS2_PLACEMENT_3D ( 'NONE', #311, #243, #374 ) ;
#222 = VERTEX_POINT ( 'NONE', #75 ) ;
#223 = COORDINATED_UNIVERSAL_TIME_OFFSET ( 1, 0, .AHEAD. ) ;
#224 = CYLINDRICAL_SURFACE ( 'NONE', #63, 0.3549999999999999822 ) ;
#225 = DIRECTION ( 'NONE',  ( 1.000000000000000000, 0.000000000000000000, -3.602642915508840499E-15 ) ) ;
#226 = CONICAL_SURFACE ( 'NONE', #341, 0.2106624327025926058, 1.047197551196575871 ) ;
#227 = CARTESIAN_POINT ( 'NONE',  ( 0.3550000000000011480, 0.000000000000000000, 0.3645833333333335924 ) ) ;
#228 = EDGE_CURVE ( 'NONE', #222, #222, #12, .T. ) ;
#229 = CIRCLE ( 'NONE', #280, 0.3549999999999999267 ) ;
#230 = EDGE_LOOP ( 'NONE', ( #79 ) ) ;
#231 = CARTESIAN_POINT ( 'NONE',  ( 1.326762908760390423E-13, 0.000000000000000000, 38.00000000000000000 ) ) ;
#232 = EDGE_LOOP ( 'NONE', ( #193 ) ) ;
#233 = SECURITY_CLASSIFICATION ( '', '', #15 ) ;
#234 = AXIS2_PLACEMENT_3D ( 'NONE', #109, #238, #83 ) ;
#235 = AXIS2_PLACEMENT_3D ( 'NONE', #347, #118, #92 ) ;
#236 = ORIENTED_EDGE ( 'NONE', *, *, #257, .F. ) ;
#237 = PRODUCT_DEFINITION_SHAPE ( 'NONE', 'NONE',  #304 ) ;
#238 = DIRECTION ( 'NONE',  ( -3.491481338843133355E-15, 0.000000000000000000, -1.000000000000000000 ) ) ;
#239 = CARTESIAN_POINT ( 'NONE',  ( 8.934068945451840430E-15, 0.000000000000000000, 2.558819045102515677 ) ) ;
#240 = APPROVAL ( #125, 'UNSPECIFIED' ) ;
#241 = CARTESIAN_POINT ( 'NONE',  ( 9.819791265496200149E-16, 0.000000000000000000, 0.2812499999999967804 ) ) ;
#242 = EDGE_LOOP ( 'NONE', ( #286 ) ) ;
#243 = DIRECTION ( 'NONE',  ( 3.491481338843133355E-15, -0.000000000000000000, 1.000000000000000000 ) ) ;
#244 = EDGE_CURVE ( 'NONE', #190, #190, #343, .T. ) ;
#245 = FACE_OUTER_BOUND ( 'NONE', #165, .T. ) ;
#246 = DIRECTION ( 'NONE',  ( 1.000000000000000000, 0.000000000000000000, 0.000000000000000000 ) ) ;
#247 = CARTESIAN_POINT ( 'NONE',  ( 1.316288464743861212E-13, 0.000000000000000000, 37.69999999999999574 ) ) ;
#248 = APPLICATION_CONTEXT ( 'configuration controlled 3d designs of mechanical parts and assemblies' ) ;
#249 =( NAMED_UNIT ( * ) PLANE_ANGLE_UNIT ( ) SI_UNIT ( $, .RADIAN. ) );
#250 = CARTESIAN_POINT ( 'NONE',  ( 0.3550000000000003153, 0.000000000000000000, 0.1145833333333333565 ) ) ;
#251 = COORDINATED_UNIVERSAL_TIME_OFFSET ( 1, 0, .AHEAD. ) ;
#252 = VERTEX_POINT ( 'NONE', #188 ) ;
#253 = PERSON_AND_ORGANIZATION ( #293, #104 ) ;
#254 = AXIS2_PLACEMENT_3D ( 'NONE', #113, #337, #372 ) ;
#255 = CARTESIAN_POINT ( 'NONE',  ( 1.345675099345788088E-15, 0.000000000000000000, 0.3854166666666658525 ) ) ;
#256 = FACE_OUTER_BOUND ( 'NONE', #261, .T. ) ;
#257 = EDGE_CURVE ( 'NONE', #41, #41, #78, .T. ) ;
#258 = CARTESIAN_POINT ( 'NONE',  ( 0.3550000000000012590, 0.000000000000000000, 0.3854166666666646313 ) ) ;
#259 = DIRECTION ( 'NONE',  ( 1.000000000000000000, 0.000000000000000000, -3.388131789017201356E-15 ) ) ;
#260 = EDGE_LOOP ( 'NONE', ( #5 ) ) ;
#261 = EDGE_LOOP ( 'NONE', ( #48 ) ) ;
#262 = ORIENTED_EDGE ( 'NONE', *, *, #108, .T. ) ;
#263 = EDGE_LOOP ( 'NONE', ( #331 ) ) ;
#264 = EDGE_CURVE ( 'NONE', #135, #135, #229, .T. ) ;
#265 = ORIENTED_EDGE ( 'NONE', *, *, #264, .F. ) ;
#266 = DIRECTION ( 'NONE',  ( -3.491481338843133355E-15, 0.000000000000000000, -1.000000000000000000 ) ) ;
#267 = AXIS2_PLACEMENT_3D ( 'NONE', #299, #28, #211 ) ;
#268 = ORIENTED_EDGE ( 'NONE', *, *, #371, .T. ) ;
#269 = PLANE ( 'NONE',  #274 ) ;
#270 = DATE_AND_TIME ( #309, #320 ) ;
#271 = EDGE_CURVE ( 'NONE', #105, #105, #29, .T. ) ;
#272 = CYLINDRICAL_SURFACE ( 'NONE', #221, 0.2106624327025926335 ) ;
#273 = FACE_OUTER_BOUND ( 'NONE', #106, .T. ) ;
#274 = AXIS2_PLACEMENT_3D ( 'NONE', #138, #266, #360 ) ;
#275 = FACE_BOUND ( 'NONE', #242, .T. ) ;
#276 = CARTESIAN_POINT ( 'NONE',  ( 1.272935904786564295E-15, 0.000000000000000000, 0.3645833333333348136 ) ) ;
#277 = APPROVAL_PERSON_ORGANIZATION ( #187, #54, #74 ) ;
#278 = FACE_OUTER_BOUND ( 'NONE', #342, .T. ) ;
#279 = CIRCLE ( 'NONE', #23, 0.2106624327025926058 ) ;
#280 = AXIS2_PLACEMENT_3D ( 'NONE', #370, #89, #149 ) ;
#281 = CARTESIAN_POINT ( 'NONE',  ( 0.1565358449660652629, 0.000000000000000000, -5.465419815590586836E-16 ) ) ;
#282 = EDGE_LOOP ( 'NONE', ( #107 ) ) ;
#283 = EDGE_CURVE ( 'NONE', #73, #73, #219, .T. ) ;
#284 = FACE_BOUND ( 'NONE', #156, .T. ) ;
#285 = APPLICATION_PROTOCOL_DEFINITION ( 'international standard', 'config_control_design', 1994, #248 ) ;
#286 = ORIENTED_EDGE ( 'NONE', *, *, #244, .T. ) ;
#287 = APPROVAL_PERSON_ORGANIZATION ( #205, #137, #61 ) ;
#288 = FACE_OUTER_BOUND ( 'NONE', #328, .T. ) ;
#289 = AXIS2_PLACEMENT_3D ( 'NONE', #296, #364, #391 ) ;
#290 = APPROVAL_STATUS ( 'not_yet_approved' ) ;
#291 = CARTESIAN_POINT ( 'NONE',  ( 1.500000000000025979, 0.000000000000000000, 7.432600579729815138 ) ) ;
#292 = CARTESIAN_POINT ( 'NONE',  ( 4.728047646350040591E-16, 0.000000000000000000, 0.1354166666666656305 ) ) ;
#293 = PERSON ( 'UNSPECIFIED', 'UNSPECIFIED', 'UNSPECIFIED', ('UNSPECIFIED'), ('UNSPECIFIED'), ('UNSPECIFIED') ) ;
#294 = CONICAL_SURFACE ( 'NONE', #234, 1.499999999999996447, 0.7853981633974501664 ) ;
#295 = ORIENTED_EDGE ( 'NONE', *, *, #244, .F. ) ;
#296 = CARTESIAN_POINT ( 'NONE',  ( 1.745740669421568255E-15, 0.000000000000000000, 0.5000000000000004441 ) ) ;
#297 = ADVANCED_FACE ( 'NONE', ( #245, #213 ), #336, .T. ) ;
#298 = EDGE_LOOP ( 'NONE', ( #262 ) ) ;
#299 = CARTESIAN_POINT ( 'NONE',  ( 1.745740669421566678E-15, 0.2106624327025926335, 0.5000000000000000000 ) ) ;
#300 = ORIENTED_EDGE ( 'NONE', *, *, #348, .F. ) ;
#301 = AXIS2_PLACEMENT_3D ( 'NONE', #276, #367, #88 ) ;
#302 = DIRECTION ( 'NONE',  ( 3.491481338843133355E-15, -0.000000000000000000, 1.000000000000000000 ) ) ;
#303 = AXIS2_PLACEMENT_3D ( 'NONE', #181, #215, #39 ) ;
#304 = PRODUCT_DEFINITION ( 'UNKNOWN', '', #163, #385 ) ;
#305 = DIRECTION ( 'NONE',  ( 1.000000000000000000, 0.000000000000000000, -3.602642915508840499E-15 ) ) ;
#306 = DIRECTION ( 'NONE',  ( 3.491481338843133355E-15, -0.000000000000000000, 1.000000000000000000 ) ) ;
#307 = ADVANCED_BREP_SHAPE_REPRESENTATION ( '953217', ( #127, #1 ), #56 ) ;
#308 = PLANE ( 'NONE',  #254 ) ;
#309 = CALENDAR_DATE ( 2023, 27, 9 ) ;
#310 = DIRECTION ( 'NONE',  ( 3.491481338843133355E-15, -0.000000000000000000, 1.000000000000000000 ) ) ;
#311 = CARTESIAN_POINT ( 'NONE',  ( 1.326762908760390423E-13, 0.000000000000000000, 38.00000000000000000 ) ) ;
#312 = APPLICATION_PROTOCOL_DEFINITION ( 'international standard', 'config_control_design', 1994, #50 ) ;
#313 = CARTESIAN_POINT ( 'NONE',  ( 0.2106624327025942434, 0.000000000000000000, 0.4687499999999961697 ) ) ;
#314 = AXIS2_PLACEMENT_3D ( 'NONE', #144, #121, #150 ) ;
#315 = EDGE_CURVE ( 'NONE', #133, #133, #70, .T. ) ;
#316 = DIRECTION ( 'NONE',  ( 3.491481338843133355E-15, -0.000000000000000000, 1.000000000000000000 ) ) ;
#317 = APPROVAL_DATE_TIME ( #353, #54 ) ;
#318 = DIRECTION ( 'NONE',  ( -1.000000000000000000, 0.000000000000000000, 3.512204220727691237E-15 ) ) ;
#319 = PERSON_AND_ORGANIZATION_ROLE ( 'design_supplier' ) ;
#320 = LOCAL_TIME ( 7, 49, 3.000000000000000000, #143 ) ;
#321 = DIRECTION ( 'NONE',  ( 3.491481338843133355E-15, -0.000000000000000000, 1.000000000000000000 ) ) ;
#322 = ADVANCED_FACE ( 'NONE', ( #154, #42 ), #224, .T. ) ;
#323 = FACE_BOUND ( 'NONE', #142, .T. ) ;
#324 = DIRECTION ( 'NONE',  ( 3.491481338843133355E-15, -0.000000000000000000, 1.000000000000000000 ) ) ;
#325 = ORIENTED_EDGE ( 'NONE', *, *, #141, .F. ) ;
#326 = CIRCLE ( 'NONE', #146, 0.1565358449660652629 ) ;
#327 = EDGE_LOOP ( 'NONE', ( #369 ) ) ;
#328 = EDGE_LOOP ( 'NONE', ( #265 ) ) ;
#329 = EDGE_LOOP ( 'NONE', ( #392 ) ) ;
#330 = CARTESIAN_POINT ( 'NONE',  ( 4.728047646350040591E-16, 0.000000000000000000, 0.1354166666666656305 ) ) ;
#331 = ORIENTED_EDGE ( 'NONE', *, *, #371, .F. ) ;
#332 = ADVANCED_FACE ( 'NONE', ( #46, #284 ), #226, .T. ) ;
#333 = APPROVAL_PERSON_ORGANIZATION ( #382, #240, #212 ) ;
#334 = DIRECTION ( 'NONE',  ( 1.000000000000000000, 0.000000000000000000, -3.512204220727690448E-15 ) ) ;
#335 = APPROVAL_STATUS ( 'not_yet_approved' ) ;
#336 = CYLINDRICAL_SURFACE ( 'NONE', #180, 0.1599999999999998646 ) ;
#337 = DIRECTION ( 'NONE',  ( 3.491481338843133355E-15, -0.000000000000000000, 1.000000000000000000 ) ) ;
#338 = LOCAL_TIME ( 7, 49, 3.000000000000000000, #251 ) ;
#339 = ADVANCED_FACE ( 'NONE', ( #349, #256 ), #98, .T. ) ;
#340 = DIRECTION ( 'NONE',  ( 3.491481338843133355E-15, -0.000000000000000000, 1.000000000000000000 ) ) ;
#341 = AXIS2_PLACEMENT_3D ( 'NONE', #161, #160, #225 ) ;
#342 = EDGE_LOOP ( 'NONE', ( #236 ) ) ;
#343 = CIRCLE ( 'NONE', #192, 0.1940741737109295539 ) ;
#344 = CALENDAR_DATE ( 2023, 27, 9 ) ;
#345 = CARTESIAN_POINT ( 'NONE',  ( 1.326762908760390423E-13, 0.000000000000000000, 38.00000000000000000 ) ) ;
#346 = PERSON_AND_ORGANIZATION ( #293, #104 ) ;
#347 = CARTESIAN_POINT ( 'NONE',  ( 7.637615428719239830E-16, 0.000000000000000000, 0.2187499999999967248 ) ) ;
#348 = EDGE_CURVE ( 'NONE', #185, #185, #326, .T. ) ;
#349 = FACE_BOUND ( 'NONE', #394, .T. ) ;
#350 = PERSON_AND_ORGANIZATION_ROLE ( 'creator' ) ;
#351 = AXIS2_PLACEMENT_3D ( 'NONE', #11, #7, #40 ) ;
#352 = CARTESIAN_POINT ( 'NONE',  ( 0.1940741737109385190, 0.000000000000000000, 2.558819045102514789 ) ) ;
#353 = DATE_AND_TIME ( #18, #195 ) ;
#354 = CC_DESIGN_PERSON_AND_ORGANIZATION_ASSIGNMENT ( #43, #155, ( #163 ) ) ;
#355 = DIRECTION ( 'NONE',  ( 1.000000000000000000, 0.000000000000000000, 0.000000000000000000 ) ) ;
#356 = DIRECTION ( 'NONE',  ( 1.000000000000000000, 0.000000000000000000, 0.000000000000000000 ) ) ;
#357 = FACE_OUTER_BOUND ( 'NONE', #260, .T. ) ;
#358 = ADVANCED_FACE ( 'NONE', ( #288, #152 ), #16, .T. ) ;
#359 = EDGE_LOOP ( 'NONE', ( #197 ) ) ;
#360 = DIRECTION ( 'NONE',  ( -1.000000000000000000, 0.000000000000000000, 3.491481338843133355E-15 ) ) ;
#361 = ORIENTED_EDGE ( 'NONE', *, *, #172, .T. ) ;
#362 = FACE_OUTER_BOUND ( 'NONE', #327, .T. ) ;
#363 = ORIENTED_EDGE ( 'NONE', *, *, #257, .T. ) ;
#364 = DIRECTION ( 'NONE',  ( 3.491481338843133355E-15, -0.000000000000000000, 1.000000000000000000 ) ) ;
#365 = DIRECTION ( 'NONE',  ( 3.491481338843133355E-15, -0.000000000000000000, 1.000000000000000000 ) ) ;
#366 = CIRCLE ( 'NONE', #289, 0.2106624327025926335 ) ;
#367 = DIRECTION ( 'NONE',  ( 3.491481338843133355E-15, -0.000000000000000000, 1.000000000000000000 ) ) ;
#368 = CONICAL_SURFACE ( 'NONE', #37, 0.1940741737109295539, 0.2617993877991429685 ) ;
#369 = ORIENTED_EDGE ( 'NONE', *, *, #228, .T. ) ;
#370 = CARTESIAN_POINT ( 'NONE',  ( 1.345675099345788088E-15, 0.000000000000000000, 0.3854166666666658525 ) ) ;
#371 = EDGE_CURVE ( 'NONE', #13, #13, #120, .T. ) ;
#372 = DIRECTION ( 'NONE',  ( 1.000000000000000000, 0.000000000000000000, -3.491481338843133355E-15 ) ) ;
#373 = CC_DESIGN_APPROVAL ( #240, ( #304 ) ) ;
#374 = DIRECTION ( 'NONE',  ( 1.000000000000000000, 0.000000000000000000, 0.000000000000000000 ) ) ;
#375 = CIRCLE ( 'NONE', #114, 1.499999999999996447 ) ;
#376 = DIRECTION ( 'NONE',  ( 3.491481338843133355E-15, -0.000000000000000000, 1.000000000000000000 ) ) ;
#377 = APPROVAL_DATE_TIME ( #128, #240 ) ;
#378 = PERSON_AND_ORGANIZATION ( #293, #104 ) ;
#379 = VERTEX_POINT ( 'NONE', #99 ) ;
#380 = PERSON_AND_ORGANIZATION_ROLE ( 'classification_officer' ) ;
#381 = DIRECTION ( 'NONE',  ( 1.000000000000000000, 0.000000000000000000, -3.474028087893693774E-15 ) ) ;
#382 = PERSON_AND_ORGANIZATION ( #293, #104 ) ;
#383 = CC_DESIGN_DATE_AND_TIME_ASSIGNMENT ( #169, #204, ( #233 ) ) ;
#384 = DIRECTION ( 'NONE',  ( 3.491481338843133355E-15, -0.000000000000000000, 1.000000000000000000 ) ) ;
#385 = DESIGN_CONTEXT ( 'detailed design', #248, 'design' ) ;
#386 = DIRECTION ( 'NONE',  ( -3.491481338843133355E-15, 0.000000000000000000, -1.000000000000000000 ) ) ;
#387 = AXIS2_PLACEMENT_3D ( 'NONE', #255, #386, #318 ) ;
#388 = AXIS2_PLACEMENT_3D ( 'NONE', #202, #6, #80 ) ;
#389 = ORIENTED_EDGE ( 'NONE', *, *, #141, .T. ) ;
#390 = ADVANCED_FACE ( 'NONE', ( #323, #71 ), #220, .T. ) ;
#391 = DIRECTION ( 'NONE',  ( 1.000000000000000000, 0.000000000000000000, -3.602642915508839710E-15 ) ) ;
#392 = ORIENTED_EDGE ( 'NONE', *, *, #178, .F. ) ;
#393 = CYLINDRICAL_SURFACE ( 'NONE', #147, 0.2106624327025926335 ) ;
#394 = EDGE_LOOP ( 'NONE', ( #173 ) ) ;
#395 = LOCAL_TIME ( 7, 49, 3.000000000000000000, #223 ) ;
ENDSEC;
END-ISO-10303-21;
