ISO-10303-21;
HEADER;
FILE_DESCRIPTION (( 'STEP AP203' ),
    '1' );
FILE_NAME ('953216.step',
    '2023-09-27T05:49:03',
    ( '' ),
    ( '' ),
    'SwSTEP 2.0',
    'SolidWorks 2022',
    '' );
FILE_SCHEMA (( 'CONFIG_CONTROL_DESIGN' ));
ENDSEC;

DATA;
#1 = FACE_OUTER_BOUND ( 'NONE', #278, .T. ) ;
#2 = CARTESIAN_POINT ( 'NONE',  ( 0.000000000000000000, 0.000000000000000000, 0.000000000000000000 ) ) ;
#3 = ORIENTED_EDGE ( 'NONE', *, *, #394, .T. ) ;
#4 =( LENGTH_UNIT ( ) NAMED_UNIT ( * ) SI_UNIT ( .MILLI., .METRE. ) );
#5 = ADVANCED_FACE ( 'NONE', ( #337, #1 ), #239, .T. ) ;
#6 = ORIENTED_EDGE ( 'NONE', *, *, #313, .F. ) ;
#7 = CYLINDRICAL_SURFACE ( 'NONE', #202, 0.3199999999999999512 ) ;
#8 = ORIENTED_EDGE ( 'NONE', *, *, #70, .T. ) ;
#9 = CARTESIAN_POINT ( 'NONE',  ( 8.235772677683216914E-15, 0.000000000000000000, 2.358819045102516831 ) ) ;
#10 = ORIENTED_EDGE ( 'NONE', *, *, #394, .F. ) ;
#11 = CIRCLE ( 'NONE', #308, 1.499999999999996447 ) ;
#12 = CONICAL_SURFACE ( 'NONE', #89, 1.499999999999996447, 0.7853981633974501664 ) ;
#13 = EDGE_CURVE ( 'NONE', #146, #146, #280, .T. ) ;
#14 = PERSON_AND_ORGANIZATION ( #169, #277 ) ;
#15 = FACE_OUTER_BOUND ( 'NONE', #127, .T. ) ;
#16 = PERSON_AND_ORGANIZATION_ROLE ( 'classification_officer' ) ;
#17 = DIRECTION ( 'NONE',  ( 3.491481338843133355E-15, -0.000000000000000000, 1.000000000000000000 ) ) ;
#18 = APPROVAL_STATUS ( 'not_yet_approved' ) ;
#19 = CIRCLE ( 'NONE', #288, 1.199999999999993516 ) ;
#20 = AXIS2_PLACEMENT_3D ( 'NONE', #100, #17, #281 ) ;
#21 = DIRECTION ( 'NONE',  ( -3.491481338843133355E-15, 0.000000000000000000, -1.000000000000000000 ) ) ;
#22 = CYLINDRICAL_SURFACE ( 'NONE', #25, 1.499999999999998224 ) ;
#23 = DIRECTION ( 'NONE',  ( 1.000000000000000000, 0.000000000000000000, -3.422063879522767479E-15 ) ) ;
#24 = DIRECTION ( 'NONE',  ( 1.000000000000000000, 0.000000000000000000, -3.491481338843132961E-15 ) ) ;
#25 = AXIS2_PLACEMENT_3D ( 'NONE', #140, #353, #389 ) ;
#26 = CC_DESIGN_APPROVAL ( #363, ( #324 ) ) ;
#27 = CARTESIAN_POINT ( 'NONE',  ( 0.1790741737109377563, 0.000000000000000000, 2.358819045102516831 ) ) ;
#28 = CONICAL_SURFACE ( 'NONE', #102, 0.1790741737109295129, 0.2617993877991429130 ) ;
#29 = CARTESIAN_POINT ( 'NONE',  ( 0.1413822604694587315, 0.000000000000000000, -4.936335240725743484E-16 ) ) ;
#30 = ORIENTED_EDGE ( 'NONE', *, *, #298, .T. ) ;
#31 = CARTESIAN_POINT ( 'NONE',  ( 0.1450000000000015166, 0.000000000000000000, 0.4499999999999985123 ) ) ;
#32 = ORIENTED_EDGE ( 'NONE', *, *, #235, .T. ) ;
#33 = APPROVAL_ROLE ( '' ) ;
#34 =( GEOMETRIC_REPRESENTATION_CONTEXT ( 3 ) GLOBAL_UNCERTAINTY_ASSIGNED_CONTEXT ( ( #284 ) ) GLOBAL_UNIT_ASSIGNED_CONTEXT ( ( #4, #183, #305 ) ) REPRESENTATION_CONTEXT ( 'NONE', 'WORKASPACE' ) );
#35 = ORIENTED_EDGE ( 'NONE', *, *, #141, .T. ) ;
#36 = CARTESIAN_POINT ( 'NONE',  ( 0.3200000000000011169, 0.000000000000000000, 0.3281249999999973910 ) ) ;
#37 = ORIENTED_EDGE ( 'NONE', *, *, #283, .F. ) ;
#38 = DATE_AND_TIME ( #193, #78 ) ;
#39 = DIRECTION ( 'NONE',  ( -3.491481338843133355E-15, 0.000000000000000000, -1.000000000000000000 ) ) ;
#40 = DIRECTION ( 'NONE',  ( 3.491481338843133355E-15, -0.000000000000000000, 1.000000000000000000 ) ) ;
#41 = CC_DESIGN_SECURITY_CLASSIFICATION ( #163, ( #86 ) ) ;
#42 = CC_DESIGN_DATE_AND_TIME_ASSIGNMENT ( #279, #282, ( #324 ) ) ;
#43 = EDGE_LOOP ( 'NONE', ( #6 ) ) ;
#44 = AXIS2_PLACEMENT_3D ( 'NONE', #355, #56, #320 ) ;
#45 = CIRCLE ( 'NONE', #20, 0.3199999999999999512 ) ;
#46 = CARTESIAN_POINT ( 'NONE',  ( 0.000000000000000000, 0.000000000000000000, 0.000000000000000000 ) ) ;
#47 = PERSON_AND_ORGANIZATION ( #169, #277 ) ;
#48 = FACE_OUTER_BOUND ( 'NONE', #275, .T. ) ;
#49 = DESIGN_CONTEXT ( 'detailed design', #207, 'design' ) ;
#50 = FACE_OUTER_BOUND ( 'NONE', #91, .T. ) ;
#51 = AXIS2_PLACEMENT_3D ( 'NONE', #145, #230, #322 ) ;
#52 = DIRECTION ( 'NONE',  ( 1.000000000000000000, 0.000000000000000000, -3.469446951953614189E-15 ) ) ;
#53 = DIRECTION ( 'NONE',  ( 1.000000000000000000, 0.000000000000000000, -3.422063879522763535E-15 ) ) ;
#54 = DIRECTION ( 'NONE',  ( 3.491481338843133355E-15, -0.000000000000000000, 1.000000000000000000 ) ) ;
#55 = DIRECTION ( 'NONE',  ( 1.000000000000000000, 0.000000000000000000, -5.782411586589388010E-15 ) ) ;
#56 = DIRECTION ( 'NONE',  ( 3.491481338843133355E-15, -0.000000000000000000, 1.000000000000000000 ) ) ;
#57 = APPROVAL ( #18, 'UNSPECIFIED' ) ;
#58 = CARTESIAN_POINT ( 'NONE',  ( 0.1900961894323333901, 0.000000000000000000, 0.1968749999999984956 ) ) ;
#59 = ADVANCED_FACE ( 'NONE', ( #302, #154 ), #12, .T. ) ;
#60 = VERTEX_POINT ( 'NONE', #27 ) ;
#61 = PERSON_AND_ORGANIZATION ( #169, #277 ) ;
#62 = EDGE_LOOP ( 'NONE', ( #155 ) ) ;
#63 = EDGE_LOOP ( 'NONE', ( #32 ) ) ;
#64 = DIRECTION ( 'NONE',  ( 1.000000000000000000, 0.000000000000000000, -3.422063879522759591E-15 ) ) ;
#65 = AXIS2_PLACEMENT_3D ( 'NONE', #254, #173, #162 ) ;
#66 = ORIENTED_EDGE ( 'NONE', *, *, #378, .T. ) ;
#67 = FACE_OUTER_BOUND ( 'NONE', #316, .T. ) ;
#68 = ORIENTED_EDGE ( 'NONE', *, *, #349, .T. ) ;
#69 = PERSON_AND_ORGANIZATION_ROLE ( 'creator' ) ;
#70 = EDGE_CURVE ( 'NONE', #358, #358, #45, .T. ) ;
#71 = PLANE ( 'NONE',  #289 ) ;
#72 = COORDINATED_UNIVERSAL_TIME_OFFSET ( 1, 0, .AHEAD. ) ;
#73 = CIRCLE ( 'NONE', #341, 0.1900961894323327239 ) ;
#74 = CALENDAR_DATE ( 2023, 27, 9 ) ;
#75 = FACE_OUTER_BOUND ( 'NONE', #103, .T. ) ;
#76 = DIRECTION ( 'NONE',  ( 3.491481338843133355E-15, -0.000000000000000000, 1.000000000000000000 ) ) ;
#77 = CARTESIAN_POINT ( 'NONE',  ( 2.544794574168632790E-14, 0.000000000000000000, 7.288581341843357819 ) ) ;
#78 = LOCAL_TIME ( 7, 49, 3.000000000000000000, #190 ) ;
#79 = DIRECTION ( 'NONE',  ( 3.491481338843133355E-15, -0.000000000000000000, 1.000000000000000000 ) ) ;
#80 = CARTESIAN_POINT ( 'NONE',  ( 1.211107589411223913E-15, 0.000000000000000000, 0.3468750000000034306 ) ) ;
#81 = DIRECTION ( 'NONE',  ( -1.000000000000000000, 0.000000000000000000, 3.491481338843133355E-15 ) ) ;
#82 = DIRECTION ( 'NONE',  ( 1.000000000000000000, 0.000000000000000000, -3.422063879522759591E-15 ) ) ;
#83 = AXIS2_PLACEMENT_3D ( 'NONE', #350, #383, #82 ) ;
#84 = ADVANCED_FACE ( 'NONE', ( #159, #15 ), #120, .T. ) ;
#85 = PERSON_AND_ORGANIZATION_ROLE ( 'creator' ) ;
#86 = PRODUCT_DEFINITION_FORMATION_WITH_SPECIFIED_SOURCE ( 'ANY', '', #186, .NOT_KNOWN. ) ;
#87 = PRODUCT_DEFINITION_SHAPE ( 'NONE', 'NONE',  #324 ) ;
#88 = AXIS2_PLACEMENT_3D ( 'NONE', #179, #199, #110 ) ;
#89 = AXIS2_PLACEMENT_3D ( 'NONE', #198, #170, #311 ) ;
#90 = DIRECTION ( 'NONE',  ( 1.000000000000000000, 0.000000000000000000, -2.990902544787603621E-15 ) ) ;
#91 = EDGE_LOOP ( 'NONE', ( #98 ) ) ;
#92 = EDGE_LOOP ( 'NONE', ( #307 ) ) ;
#93 = VERTEX_POINT ( 'NONE', #58 ) ;
#94 = ADVANCED_FACE ( 'NONE', ( #188, #218 ), #71, .F. ) ;
#95 = EDGE_LOOP ( 'NONE', ( #187 ) ) ;
#96 = APPROVAL_STATUS ( 'not_yet_approved' ) ;
#97 = CARTESIAN_POINT ( 'NONE',  ( 1.326762908760390423E-13, 0.000000000000000000, 38.00000000000000000 ) ) ;
#98 = ORIENTED_EDGE ( 'NONE', *, *, #298, .F. ) ;
#99 = DIRECTION ( 'NONE',  ( 0.000000000000000000, 0.000000000000000000, 1.000000000000000000 ) ) ;
#100 = CARTESIAN_POINT ( 'NONE',  ( 3.600590130682069033E-16, 0.000000000000000000, 0.1031250000000025202 ) ) ;
#101 = CIRCLE ( 'NONE', #51, 0.3199999999999999512 ) ;
#102 = AXIS2_PLACEMENT_3D ( 'NONE', #9, #214, #222 ) ;
#103 = EDGE_LOOP ( 'NONE', ( #10 ) ) ;
#104 = ADVANCED_FACE ( 'NONE', ( #191, #317 ), #392, .F. ) ;
#105 = CIRCLE ( 'NONE', #267, 1.500000000000000000 ) ;
#106 = CARTESIAN_POINT ( 'NONE',  ( 8.837812138946677361E-16, 0.000000000000000000, 0.2531249999999998779 ) ) ;
#107 = PRODUCT_RELATED_PRODUCT_CATEGORY ( 'detail', '', ( #186 ) ) ;
#108 = DIRECTION ( 'NONE',  ( 1.000000000000000000, 0.000000000000000000, -3.422063879522759591E-15 ) ) ;
#109 = DIRECTION ( 'NONE',  ( 3.491481338843133355E-15, -0.000000000000000000, 1.000000000000000000 ) ) ;
#110 = DIRECTION ( 'NONE',  ( 1.000000000000000000, 0.000000000000000000, -2.421794611735978956E-15 ) ) ;
#111 = CARTESIAN_POINT ( 'NONE',  ( 1.326762908760390423E-13, 0.000000000000000000, 38.00000000000000000 ) ) ;
#112 = CYLINDRICAL_SURFACE ( 'NONE', #119, 0.1900961894323328349 ) ;
#113 = LOCAL_TIME ( 7, 49, 3.000000000000000000, #72 ) ;
#114 = CONICAL_SURFACE ( 'NONE', #164, 0.1900961894323329460, 1.047197551196609400 ) ;
#115 = ADVANCED_FACE ( 'NONE', ( #75, #315 ), #7, .T. ) ;
#116 = AXIS2_PLACEMENT_3D ( 'NONE', #129, #109, #195 ) ;
#117 = FACE_OUTER_BOUND ( 'NONE', #347, .T. ) ;
#118 = DIRECTION ( 'NONE',  ( 3.491481338843133355E-15, -0.000000000000000000, 1.000000000000000000 ) ) ;
#119 = AXIS2_PLACEMENT_3D ( 'NONE', #111, #263, #227 ) ;
#120 = CONICAL_SURFACE ( 'NONE', #343, 0.3199999999999999512, 1.047197551196610288 ) ;
#121 = CC_DESIGN_DATE_AND_TIME_ASSIGNMENT ( #197, #252, ( #163 ) ) ;
#122 = DATE_AND_TIME ( #393, #135 ) ;
#123 = VERTEX_POINT ( 'NONE', #310 ) ;
#124 = EDGE_LOOP ( 'NONE', ( #68 ) ) ;
#125 = APPLICATION_PROTOCOL_DEFINITION ( 'international standard', 'config_control_design', 1994, #388 ) ;
#126 = CC_DESIGN_PERSON_AND_ORGANIZATION_ASSIGNMENT ( #255, #69, ( #86 ) ) ;
#127 = EDGE_LOOP ( 'NONE', ( #192 ) ) ;
#128 = DIRECTION ( 'NONE',  ( 1.000000000000000000, 0.000000000000000000, 0.000000000000000000 ) ) ;
#129 = CARTESIAN_POINT ( 'NONE',  ( 1.571166602479406657E-15, 0.000000000000000000, 0.4499999999999990119 ) ) ;
#130 = CARTESIAN_POINT ( 'NONE',  ( 4.255242881715084554E-16, 0.000000000000000000, 0.1218750000000004552 ) ) ;
#131 = CALENDAR_DATE ( 2023, 27, 9 ) ;
#132 = PLANE ( 'NONE',  #181 ) ;
#133 = APPROVAL_ROLE ( '' ) ;
#134 = ADVANCED_FACE ( 'NONE', ( #67, #161 ), #28, .T. ) ;
#135 = LOCAL_TIME ( 7, 49, 3.000000000000000000, #268 ) ;
#136 = CYLINDRICAL_SURFACE ( 'NONE', #44, 0.1449999999999998512 ) ;
#137 = CONICAL_SURFACE ( 'NONE', #360, 0.3199999999999999512, 1.047197551196609400 ) ;
#138 = DATE_AND_TIME ( #74, #113 ) ;
#139 = FACE_OUTER_BOUND ( 'NONE', #270, .T. ) ;
#140 = CARTESIAN_POINT ( 'NONE',  ( 1.326762908760390423E-13, 0.000000000000000000, 38.00000000000000000 ) ) ;
#141 = EDGE_CURVE ( 'NONE', #362, #362, #366, .T. ) ;
#142 = CARTESIAN_POINT ( 'NONE',  ( 1.211107589411223913E-15, 0.000000000000000000, 0.3468750000000034306 ) ) ;
#143 = LOCAL_TIME ( 7, 49, 3.000000000000000000, #312 ) ;
#144 = CIRCLE ( 'NONE', #88, 0.1790741737109295129 ) ;
#145 = CARTESIAN_POINT ( 'NONE',  ( 1.145642314307898202E-15, 0.000000000000000000, 0.3281249999999985567 ) ) ;
#146 = VERTEX_POINT ( 'NONE', #264 ) ;
#147 = EDGE_LOOP ( 'NONE', ( #333 ) ) ;
#148 = APPROVAL_PERSON_ORGANIZATION ( #61, #363, #33 ) ;
#149 = PERSON_AND_ORGANIZATION ( #169, #277 ) ;
#150 = AXIS2_PLACEMENT_3D ( 'NONE', #243, #345, #348 ) ;
#151 = PERSON_AND_ORGANIZATION ( #169, #277 ) ;
#152 = EDGE_LOOP ( 'NONE', ( #219 ) ) ;
#153 = CARTESIAN_POINT ( 'NONE',  ( 0.3200000000000003952, 0.000000000000000000, 0.1218749999999993450 ) ) ;
#154 = FACE_OUTER_BOUND ( 'NONE', #95, .T. ) ;
#155 = ORIENTED_EDGE ( 'NONE', *, *, #352, .T. ) ;
#156 = CLOSED_SHELL ( 'NONE', ( #226, #175, #303, #84, #231, #206, #115, #342, #5, #94, #274, #104, #134, #356, #59, #332 ) ) ;
#157 = ORIENTED_EDGE ( 'NONE', *, *, #70, .F. ) ;
#158 = VERTEX_POINT ( 'NONE', #372 ) ;
#159 = FACE_BOUND ( 'NONE', #147, .T. ) ;
#160 = ORIENTED_EDGE ( 'NONE', *, *, #141, .F. ) ;
#161 = FACE_BOUND ( 'NONE', #244, .T. ) ;
#162 = DIRECTION ( 'NONE',  ( 1.000000000000000000, 0.000000000000000000, 0.000000000000000000 ) ) ;
#163 = SECURITY_CLASSIFICATION ( '', '', #382 ) ;
#164 = AXIS2_PLACEMENT_3D ( 'NONE', #106, #376, #108 ) ;
#165 = FACE_BOUND ( 'NONE', #309, .T. ) ;
#166 = ORIENTED_EDGE ( 'NONE', *, *, #294, .F. ) ;
#167 = DIRECTION ( 'NONE',  ( 3.491481338843133355E-15, -0.000000000000000000, 1.000000000000000000 ) ) ;
#168 = PERSON_AND_ORGANIZATION ( #169, #277 ) ;
#169 = PERSON ( 'UNSPECIFIED', 'UNSPECIFIED', 'UNSPECIFIED', ('UNSPECIFIED'), ('UNSPECIFIED'), ('UNSPECIFIED') ) ;
#170 = DIRECTION ( 'NONE',  ( -3.491481338843133355E-15, 0.000000000000000000, -1.000000000000000000 ) ) ;
#171 = FACE_OUTER_BOUND ( 'NONE', #212, .T. ) ;
#172 = CIRCLE ( 'NONE', #330, 0.3199999999999999512 ) ;
#173 = DIRECTION ( 'NONE',  ( 3.491481338843133355E-15, -0.000000000000000000, 1.000000000000000000 ) ) ;
#174 = CARTESIAN_POINT ( 'NONE',  ( 1.571166602479406657E-15, 0.000000000000000000, 0.4499999999999990119 ) ) ;
#175 = ADVANCED_FACE ( 'NONE', ( #319, #248 ), #293, .T. ) ;
#176 = CARTESIAN_POINT ( 'NONE',  ( 1.326762908760390423E-13, 1.199999999999993516, 38.00000000000000000 ) ) ;
#177 = APPROVAL ( #318, 'UNSPECIFIED' ) ;
#178 = FACE_OUTER_BOUND ( 'NONE', #336, .T. ) ;
#179 = CARTESIAN_POINT ( 'NONE',  ( 8.235772677683216914E-15, 0.000000000000000000, 2.358819045102516831 ) ) ;
#180 = VERTEX_POINT ( 'NONE', #36 ) ;
#181 = AXIS2_PLACEMENT_3D ( 'NONE', #253, #379, #204 ) ;
#182 = CARTESIAN_POINT ( 'NONE',  ( 0.1900961894323338341, 0.000000000000000000, 0.2531249999999992117 ) ) ;
#183 =( NAMED_UNIT ( * ) PLANE_ANGLE_UNIT ( ) SI_UNIT ( $, .RADIAN. ) );
#184 = APPROVAL_PERSON_ORGANIZATION ( #168, #57, #377 ) ;
#185 = ORIENTED_EDGE ( 'NONE', *, *, #384, .T. ) ;
#186 = PRODUCT ( '953216', '953216', '', ( #328 ) ) ;
#187 = ORIENTED_EDGE ( 'NONE', *, *, #313, .T. ) ;
#188 = FACE_BOUND ( 'NONE', #249, .T. ) ;
#189 = EDGE_LOOP ( 'NONE', ( #346 ) ) ;
#190 = COORDINATED_UNIVERSAL_TIME_OFFSET ( 1, 0, .AHEAD. ) ;
#191 = FACE_OUTER_BOUND ( 'NONE', #368, .T. ) ;
#192 = ORIENTED_EDGE ( 'NONE', *, *, #283, .T. ) ;
#193 = CALENDAR_DATE ( 2023, 27, 9 ) ;
#194 = MANIFOLD_SOLID_BREP ( 'Corps-Déplacer/Copier1', #156 ) ;
#195 = DIRECTION ( 'NONE',  ( 1.000000000000000000, 0.000000000000000000, -3.364765362886049685E-15 ) ) ;
#196 = CIRCLE ( 'NONE', #234, 0.3199999999999999512 ) ;
#197 = DATE_AND_TIME ( #131, #143 ) ;
#198 = CARTESIAN_POINT ( 'NONE',  ( 1.316288464743861212E-13, 0.000000000000000000, 37.69999999999999574 ) ) ;
#199 = DIRECTION ( 'NONE',  ( 3.491481338843133355E-15, -0.000000000000000000, 1.000000000000000000 ) ) ;
#200 = EDGE_CURVE ( 'NONE', #213, #213, #236, .T. ) ;
#201 = FACE_OUTER_BOUND ( 'NONE', #152, .T. ) ;
#202 = AXIS2_PLACEMENT_3D ( 'NONE', #97, #370, #224 ) ;
#203 = FACE_OUTER_BOUND ( 'NONE', #63, .T. ) ;
#204 = DIRECTION ( 'NONE',  ( 1.000000000000000000, 0.000000000000000000, -3.491481338843133355E-15 ) ) ;
#205 = DIRECTION ( 'NONE',  ( 3.491481338843133355E-15, -0.000000000000000000, 1.000000000000000000 ) ) ;
#206 = ADVANCED_FACE ( 'NONE', ( #375, #165 ), #114, .T. ) ;
#207 = APPLICATION_CONTEXT ( 'configuration controlled 3d designs of mechanical parts and assemblies' ) ;
#208 = COORDINATED_UNIVERSAL_TIME_OFFSET ( 1, 0, .AHEAD. ) ;
#209 = CARTESIAN_POINT ( 'NONE',  ( 1.200000000000126299, 0.000000000000000000, 37.99999999999999289 ) ) ;
#210 = EDGE_LOOP ( 'NONE', ( #185 ) ) ;
#211 = EDGE_LOOP ( 'NONE', ( #8 ) ) ;
#212 = EDGE_LOOP ( 'NONE', ( #340 ) ) ;
#213 = VERTEX_POINT ( 'NONE', #329 ) ;
#214 = DIRECTION ( 'NONE',  ( 3.491481338843133355E-15, -0.000000000000000000, 1.000000000000000000 ) ) ;
#215 = ORIENTED_EDGE ( 'NONE', *, *, #200, .T. ) ;
#216 = PERSON_AND_ORGANIZATION ( #169, #277 ) ;
#217 = AXIS2_PLACEMENT_3D ( 'NONE', #385, #79, #24 ) ;
#218 = FACE_OUTER_BOUND ( 'NONE', #62, .T. ) ;
#219 = ORIENTED_EDGE ( 'NONE', *, *, #257, .T. ) ;
#220 = PERSON_AND_ORGANIZATION_ROLE ( 'design_supplier' ) ;
#221 = CARTESIAN_POINT ( 'NONE',  ( 1.472968689824454378E-15, 0.000000000000000000, 0.4218750000000021094 ) ) ;
#222 = DIRECTION ( 'NONE',  ( 1.000000000000000000, 0.000000000000000000, -2.421794611735978956E-15 ) ) ;
#223 = CC_DESIGN_PERSON_AND_ORGANIZATION_ASSIGNMENT ( #14, #220, ( #86 ) ) ;
#224 = DIRECTION ( 'NONE',  ( 1.000000000000000000, 0.000000000000000000, 0.000000000000000000 ) ) ;
#225 = CARTESIAN_POINT ( 'NONE',  ( 6.873853885847389211E-16, 0.000000000000000000, 0.1968749999999991340 ) ) ;
#226 = ADVANCED_FACE ( 'NONE', ( #48 ), #132, .F. ) ;
#227 = DIRECTION ( 'NONE',  ( 1.000000000000000000, 0.000000000000000000, 0.000000000000000000 ) ) ;
#228 = CARTESIAN_POINT ( 'NONE',  ( 1.326762908760390423E-13, 0.000000000000000000, 38.00000000000000000 ) ) ;
#229 = FACE_OUTER_BOUND ( 'NONE', #124, .T. ) ;
#230 = DIRECTION ( 'NONE',  ( 3.491481338843133355E-15, -0.000000000000000000, 1.000000000000000000 ) ) ;
#231 = ADVANCED_FACE ( 'NONE', ( #50, #203 ), #112, .T. ) ;
#232 = EDGE_LOOP ( 'NONE', ( #367 ) ) ;
#233 = CC_DESIGN_APPROVAL ( #57, ( #86 ) ) ;
#234 = AXIS2_PLACEMENT_3D ( 'NONE', #80, #54, #295 ) ;
#235 = EDGE_CURVE ( 'NONE', #93, #93, #73, .T. ) ;
#236 = CIRCLE ( 'NONE', #286, 0.1900961894323329460 ) ;
#237 = VERTEX_POINT ( 'NONE', #369 ) ;
#238 = ORIENTED_EDGE ( 'NONE', *, *, #200, .F. ) ;
#239 = CYLINDRICAL_SURFACE ( 'NONE', #65, 0.1900961894323327239 ) ;
#240 = AXIS2_PLACEMENT_3D ( 'NONE', #176, #261, #81 ) ;
#241 = CARTESIAN_POINT ( 'NONE',  ( 1.500000000000127898, 0.000000000000000000, 37.69999999999998863 ) ) ;
#242 = VERTEX_POINT ( 'NONE', #241 ) ;
#243 = CARTESIAN_POINT ( 'NONE',  ( 7.332110811570584779E-15, 0.000000000000000000, 2.100000000000000977 ) ) ;
#244 = EDGE_LOOP ( 'NONE', ( #247 ) ) ;
#245 = VERTEX_POINT ( 'NONE', #29 ) ;
#246 = DIRECTION ( 'NONE',  ( -3.491481338843133355E-15, 0.000000000000000000, -1.000000000000000000 ) ) ;
#247 = ORIENTED_EDGE ( 'NONE', *, *, #294, .T. ) ;
#248 = FACE_BOUND ( 'NONE', #272, .T. ) ;
#249 = EDGE_LOOP ( 'NONE', ( #160 ) ) ;
#250 = CC_DESIGN_PERSON_AND_ORGANIZATION_ASSIGNMENT ( #151, #85, ( #324 ) ) ;
#251 = DIRECTION ( 'NONE',  ( -1.000000000000000000, 0.000000000000000000, 3.491481338843133355E-15 ) ) ;
#252 = DATE_TIME_ROLE ( 'classification_date' ) ;
#253 = CARTESIAN_POINT ( 'NONE',  ( -4.569280659045759588E-32, 0.000000000000000000, -1.308693994211564067E-17 ) ) ;
#254 = CARTESIAN_POINT ( 'NONE',  ( 1.326762908760390423E-13, 0.000000000000000000, 38.00000000000000000 ) ) ;
#255 = PERSON_AND_ORGANIZATION ( #169, #277 ) ;
#256 = DIRECTION ( 'NONE',  ( 1.000000000000000000, 0.000000000000000000, 0.000000000000000000 ) ) ;
#257 = EDGE_CURVE ( 'NONE', #395, #395, #19, .T. ) ;
#258 = APPROVAL_DATE_TIME ( #138, #57 ) ;
#259 = CYLINDRICAL_SURFACE ( 'NONE', #269, 0.3199999999999999512 ) ;
#260 = DIRECTION ( 'NONE',  ( 1.000000000000000000, 0.000000000000000000, -3.472835083742631785E-15 ) ) ;
#261 = DIRECTION ( 'NONE',  ( -3.491481338843133355E-15, 0.000000000000000000, -1.000000000000000000 ) ) ;
#262 = CC_DESIGN_PERSON_AND_ORGANIZATION_ASSIGNMENT ( #149, #331, ( #186 ) ) ;
#263 = DIRECTION ( 'NONE',  ( 3.491481338843133355E-15, -0.000000000000000000, 1.000000000000000000 ) ) ;
#264 = CARTESIAN_POINT ( 'NONE',  ( 0.1450000000000070677, 0.000000000000000000, 2.099999999999997424 ) ) ;
#265 = EDGE_LOOP ( 'NONE', ( #238 ) ) ;
#266 = DIRECTION ( 'NONE',  ( 3.491481338843133355E-15, -0.000000000000000000, 1.000000000000000000 ) ) ;
#267 = AXIS2_PLACEMENT_3D ( 'NONE', #77, #118, #52 ) ;
#268 = COORDINATED_UNIVERSAL_TIME_OFFSET ( 1, 0, .AHEAD. ) ;
#269 = AXIS2_PLACEMENT_3D ( 'NONE', #228, #76, #256 ) ;
#270 = EDGE_LOOP ( 'NONE', ( #37 ) ) ;
#271 = VERTEX_POINT ( 'NONE', #182 ) ;
#272 = EDGE_LOOP ( 'NONE', ( #66 ) ) ;
#273 = EDGE_LOOP ( 'NONE', ( #157 ) ) ;
#274 = ADVANCED_FACE ( 'NONE', ( #171, #178 ), #136, .T. ) ;
#275 = EDGE_LOOP ( 'NONE', ( #304 ) ) ;
#276 = CARTESIAN_POINT ( 'NONE',  ( 1.571166602479410799E-15, 0.1900961894323325019, 0.4500000000000001776 ) ) ;
#277 = ORGANIZATION ( 'UNSPECIFIED', 'UNSPECIFIED', '' ) ;
#278 = EDGE_LOOP ( 'NONE', ( #215 ) ) ;
#279 = DATE_AND_TIME ( #285, #357 ) ;
#280 = CIRCLE ( 'NONE', #374, 0.1449999999999997402 ) ;
#281 = DIRECTION ( 'NONE',  ( 1.000000000000000000, 0.000000000000000000, -3.472835083742631785E-15 ) ) ;
#282 = DATE_TIME_ROLE ( 'creation_date' ) ;
#283 = EDGE_CURVE ( 'NONE', #338, #338, #172, .T. ) ;
#284 = UNCERTAINTY_MEASURE_WITH_UNIT (LENGTH_MEASURE( 1.000000000000000082E-05 ), #4, 'distance_accuracy_value', 'NONE');
#285 = CALENDAR_DATE ( 2023, 27, 9 ) ;
#286 = AXIS2_PLACEMENT_3D ( 'NONE', #221, #167, #64 ) ;
#287 = CARTESIAN_POINT ( 'NONE',  ( 1.316288464743861212E-13, 0.000000000000000000, 37.69999999999999574 ) ) ;
#288 = AXIS2_PLACEMENT_3D ( 'NONE', #292, #296, #55 ) ;
#289 = AXIS2_PLACEMENT_3D ( 'NONE', #276, #39, #251 ) ;
#290 = CIRCLE ( 'NONE', #364, 0.1900961894323325019 ) ;
#291 = DIRECTION ( 'NONE',  ( 3.491481338843133355E-15, -0.000000000000000000, 1.000000000000000000 ) ) ;
#292 = CARTESIAN_POINT ( 'NONE',  ( 1.326762908760390423E-13, 0.000000000000000000, 38.00000000000000000 ) ) ;
#293 = CONICAL_SURFACE ( 'NONE', #299, 0.1413822604694587315, 1.047197551196588972 ) ;
#294 = EDGE_CURVE ( 'NONE', #60, #60, #144, .T. ) ;
#295 = DIRECTION ( 'NONE',  ( 1.000000000000000000, 0.000000000000000000, -3.557538378468062213E-15 ) ) ;
#296 = DIRECTION ( 'NONE',  ( 3.491481338843133355E-15, -0.000000000000000000, 1.000000000000000000 ) ) ;
#297 = FACE_OUTER_BOUND ( 'NONE', #211, .T. ) ;
#298 = EDGE_CURVE ( 'NONE', #271, #271, #301, .T. ) ;
#299 = AXIS2_PLACEMENT_3D ( 'NONE', #46, #40, #339 ) ;
#300 = CARTESIAN_POINT ( 'NONE',  ( 7.332110811570572157E-15, 0.000000000000000000, 2.099999999999997868 ) ) ;
#301 = CIRCLE ( 'NONE', #83, 0.1900961894323329460 ) ;
#302 = FACE_BOUND ( 'NONE', #371, .T. ) ;
#303 = ADVANCED_FACE ( 'NONE', ( #139, #297 ), #259, .T. ) ;
#304 = ORIENTED_EDGE ( 'NONE', *, *, #378, .F. ) ;
#305 =( NAMED_UNIT ( * ) SI_UNIT ( $, .STERADIAN. ) SOLID_ANGLE_UNIT ( ) );
#306 = AXIS2_PLACEMENT_3D ( 'NONE', #2, #99, #128 ) ;
#307 = ORIENTED_EDGE ( 'NONE', *, *, #352, .F. ) ;
#308 = AXIS2_PLACEMENT_3D ( 'NONE', #287, #326, #325 ) ;
#309 = EDGE_LOOP ( 'NONE', ( #30 ) ) ;
#310 = CARTESIAN_POINT ( 'NONE',  ( 1.500000000000025313, 0.000000000000000000, 7.288581341843352490 ) ) ;
#311 = DIRECTION ( 'NONE',  ( -1.000000000000000000, 0.000000000000000000, 4.625929269271496366E-15 ) ) ;
#312 = COORDINATED_UNIVERSAL_TIME_OFFSET ( 1, 0, .AHEAD. ) ;
#313 = EDGE_CURVE ( 'NONE', #242, #242, #11, .T. ) ;
#314 = DIRECTION ( 'NONE',  ( -1.000000000000000000, 0.000000000000000000, 3.472835083742631785E-15 ) ) ;
#315 = FACE_OUTER_BOUND ( 'NONE', #210, .T. ) ;
#316 = EDGE_LOOP ( 'NONE', ( #373 ) ) ;
#317 = FACE_OUTER_BOUND ( 'NONE', #232, .T. ) ;
#318 = APPROVAL_STATUS ( 'not_yet_approved' ) ;
#319 = FACE_OUTER_BOUND ( 'NONE', #273, .T. ) ;
#320 = DIRECTION ( 'NONE',  ( 1.000000000000000000, 0.000000000000000000, 0.000000000000000000 ) ) ;
#321 = PLANE ( 'NONE',  #240 ) ;
#322 = DIRECTION ( 'NONE',  ( 1.000000000000000000, 0.000000000000000000, -3.557538378468062213E-15 ) ) ;
#323 = DIRECTION ( 'NONE',  ( 3.491481338843133355E-15, -0.000000000000000000, 1.000000000000000000 ) ) ;
#324 = PRODUCT_DEFINITION ( 'UNKNOWN', '', #86, #49 ) ;
#325 = DIRECTION ( 'NONE',  ( 1.000000000000000000, 0.000000000000000000, -4.625929269271496366E-15 ) ) ;
#326 = DIRECTION ( 'NONE',  ( 3.491481338843133355E-15, -0.000000000000000000, 1.000000000000000000 ) ) ;
#327 = CARTESIAN_POINT ( 'NONE',  ( 0.3200000000000003397, 0.000000000000000000, 0.1031250000000014100 ) ) ;
#328 = MECHANICAL_CONTEXT ( 'NONE', #388, 'mechanical' ) ;
#329 = CARTESIAN_POINT ( 'NONE',  ( 0.1900961894323344170, 0.000000000000000000, 0.4218750000000014433 ) ) ;
#330 = AXIS2_PLACEMENT_3D ( 'NONE', #381, #205, #260 ) ;
#331 = PERSON_AND_ORGANIZATION_ROLE ( 'design_owner' ) ;
#332 = ADVANCED_FACE ( 'NONE', ( #201 ), #321, .F. ) ;
#333 = ORIENTED_EDGE ( 'NONE', *, *, #235, .F. ) ;
#334 = APPLICATION_PROTOCOL_DEFINITION ( 'international standard', 'config_control_design', 1994, #207 ) ;
#335 = CC_DESIGN_PERSON_AND_ORGANIZATION_ASSIGNMENT ( #47, #16, ( #163 ) ) ;
#336 = EDGE_LOOP ( 'NONE', ( #35 ) ) ;
#337 = FACE_OUTER_BOUND ( 'NONE', #92, .T. ) ;
#338 = VERTEX_POINT ( 'NONE', #153 ) ;
#339 = DIRECTION ( 'NONE',  ( 1.000000000000000000, 0.000000000000000000, -3.491481338843132961E-15 ) ) ;
#340 = ORIENTED_EDGE ( 'NONE', *, *, #13, .F. ) ;
#341 = AXIS2_PLACEMENT_3D ( 'NONE', #225, #323, #53 ) ;
#342 = ADVANCED_FACE ( 'NONE', ( #354, #117 ), #137, .T. ) ;
#343 = AXIS2_PLACEMENT_3D ( 'NONE', #130, #246, #314 ) ;
#344 = SHAPE_DEFINITION_REPRESENTATION ( #87, #365 ) ;
#345 = DIRECTION ( 'NONE',  ( 3.491481338843133355E-15, -0.000000000000000000, 1.000000000000000000 ) ) ;
#346 = ORIENTED_EDGE ( 'NONE', *, *, #384, .F. ) ;
#347 = EDGE_LOOP ( 'NONE', ( #3 ) ) ;
#348 = DIRECTION ( 'NONE',  ( 1.000000000000000000, 0.000000000000000000, -3.491481338843133355E-15 ) ) ;
#349 = EDGE_CURVE ( 'NONE', #123, #123, #105, .T. ) ;
#350 = CARTESIAN_POINT ( 'NONE',  ( 8.837812138946677361E-16, 0.000000000000000000, 0.2531249999999998779 ) ) ;
#351 = DIRECTION ( 'NONE',  ( -1.000000000000000000, 0.000000000000000000, 3.557538378468062213E-15 ) ) ;
#352 = EDGE_CURVE ( 'NONE', #158, #158, #290, .T. ) ;
#353 = DIRECTION ( 'NONE',  ( 3.491481338843133355E-15, -0.000000000000000000, 1.000000000000000000 ) ) ;
#354 = FACE_BOUND ( 'NONE', #265, .T. ) ;
#355 = CARTESIAN_POINT ( 'NONE',  ( 1.326762908760390423E-13, 0.000000000000000000, 38.00000000000000000 ) ) ;
#356 = ADVANCED_FACE ( 'NONE', ( #387, #229 ), #22, .T. ) ;
#357 = LOCAL_TIME ( 7, 49, 3.000000000000000000, #208 ) ;
#358 = VERTEX_POINT ( 'NONE', #327 ) ;
#359 = ORIENTED_EDGE ( 'NONE', *, *, #257, .F. ) ;
#360 = AXIS2_PLACEMENT_3D ( 'NONE', #142, #21, #351 ) ;
#361 = APPROVAL_DATE_TIME ( #122, #363 ) ;
#362 = VERTEX_POINT ( 'NONE', #31 ) ;
#363 = APPROVAL ( #96, 'UNSPECIFIED' ) ;
#364 = AXIS2_PLACEMENT_3D ( 'NONE', #174, #291, #23 ) ;
#365 = ADVANCED_BREP_SHAPE_REPRESENTATION ( '953216', ( #194, #306 ), #34 ) ;
#366 = CIRCLE ( 'NONE', #116, 0.1449999999999999345 ) ;
#367 = ORIENTED_EDGE ( 'NONE', *, *, #13, .T. ) ;
#368 = EDGE_LOOP ( 'NONE', ( #166 ) ) ;
#369 = CARTESIAN_POINT ( 'NONE',  ( 0.3200000000000011724, 0.000000000000000000, 0.3468750000000022649 ) ) ;
#370 = DIRECTION ( 'NONE',  ( 3.491481338843133355E-15, -0.000000000000000000, 1.000000000000000000 ) ) ;
#371 = EDGE_LOOP ( 'NONE', ( #359 ) ) ;
#372 = CARTESIAN_POINT ( 'NONE',  ( 0.1900961894323340839, 0.000000000000000000, 0.4499999999999983458 ) ) ;
#373 = ORIENTED_EDGE ( 'NONE', *, *, #349, .F. ) ;
#374 = AXIS2_PLACEMENT_3D ( 'NONE', #300, #266, #90 ) ;
#375 = FACE_OUTER_BOUND ( 'NONE', #189, .T. ) ;
#376 = DIRECTION ( 'NONE',  ( 3.491481338843133355E-15, -0.000000000000000000, 1.000000000000000000 ) ) ;
#377 = APPROVAL_ROLE ( '' ) ;
#378 = EDGE_CURVE ( 'NONE', #245, #245, #391, .T. ) ;
#379 = DIRECTION ( 'NONE',  ( 3.491481338843133355E-15, -0.000000000000000000, 1.000000000000000000 ) ) ;
#380 = APPROVAL_DATE_TIME ( #38, #177 ) ;
#381 = CARTESIAN_POINT ( 'NONE',  ( 4.255242881715084554E-16, 0.000000000000000000, 0.1218750000000004552 ) ) ;
#382 = SECURITY_CLASSIFICATION_LEVEL ( 'unclassified' ) ;
#383 = DIRECTION ( 'NONE',  ( 3.491481338843133355E-15, -0.000000000000000000, 1.000000000000000000 ) ) ;
#384 = EDGE_CURVE ( 'NONE', #180, #180, #101, .T. ) ;
#385 = CARTESIAN_POINT ( 'NONE',  ( 0.000000000000000000, 0.000000000000000000, 0.000000000000000000 ) ) ;
#386 = CC_DESIGN_APPROVAL ( #177, ( #163 ) ) ;
#387 = FACE_OUTER_BOUND ( 'NONE', #43, .T. ) ;
#388 = APPLICATION_CONTEXT ( 'configuration controlled 3d designs of mechanical parts and assemblies' ) ;
#389 = DIRECTION ( 'NONE',  ( 1.000000000000000000, 0.000000000000000000, -4.625929269271490844E-15 ) ) ;
#390 = APPROVAL_PERSON_ORGANIZATION ( #216, #177, #133 ) ;
#391 = CIRCLE ( 'NONE', #217, 0.1413822604694587315 ) ;
#392 = TOROIDAL_SURFACE ( 'NONE', #150, 1.144999999999999796, 1.000000000000000000 ) ;
#393 = CALENDAR_DATE ( 2023, 27, 9 ) ;
#394 = EDGE_CURVE ( 'NONE', #237, #237, #196, .T. ) ;
#395 = VERTEX_POINT ( 'NONE', #209 ) ;
ENDSEC;
END-ISO-10303-21;
