ISO-10303-21;
HEADER;
FILE_DESCRIPTION (( 'STEP AP203' ),
    '1' );
FILE_NAME ('953186.step',
    '2021-10-06T09:23:03',
    ( '' ),
    ( '' ),
    'SwSTEP 2.0',
    'SolidWorks 2019',
    '' );
FILE_SCHEMA (( 'CONFIG_CONTROL_DESIGN' ));
ENDSEC;

DATA;
#1 = CARTESIAN_POINT ( 'NONE',  ( 1.043952920314096810E-13, 0.1999999999999963474, 29.89999999999999858 ) ) ;
#2 = VERTEX_POINT ( 'NONE', #191 ) ;
#3 = APPLICATION_PROTOCOL_DEFINITION ( 'international standard', 'config_control_design', 1994, #69 ) ;
#4 = APPROVAL_ROLE ( '' ) ;
#5 = MANIFOLD_SOLID_BREP ( 'Corps-Déplacer/Copier1[2]', #146 ) ;
#6 = COORDINATED_UNIVERSAL_TIME_OFFSET ( 1, 0, .AHEAD. ) ;
#7 = SECURITY_CLASSIFICATION_LEVEL ( 'unclassified' ) ;
#8 = PERSON_AND_ORGANIZATION_ROLE ( 'design_supplier' ) ;
#9 = CARTESIAN_POINT ( 'NONE',  ( 2.094888803305880013E-14, 1.499759782661825449E-33, 6.000000000000000000 ) ) ;
#10 = CARTESIAN_POINT ( 'NONE',  ( 1.047444401652940007E-13, -3.673940397442059178E-15, 30.00000000000000000 ) ) ;
#11 = CC_DESIGN_DATE_AND_TIME_ASSIGNMENT ( #40, #194, ( #17 ) ) ;
#12 = CARTESIAN_POINT ( 'NONE',  ( 4.031615381703248876E-16, -1.414100318299866683E-17, 0.1154700538379243857 ) ) ;
#13 = MANIFOLD_SOLID_BREP ( 'Corps-Déplacer/Copier1[1]', #99 ) ;
#14 = LOCAL_TIME ( 11, 23, 3.000000000000000000, #91 ) ;
#15 = APPROVAL_PERSON_ORGANIZATION ( #78, #116, #4 ) ;
#16 = CC_DESIGN_PERSON_AND_ORGANIZATION_ASSIGNMENT ( #25, #62, ( #17 ) ) ;
#17 = SECURITY_CLASSIFICATION ( '', '', #7 ) ;
#18 = CARTESIAN_POINT ( 'NONE',  ( 0.0000000000000000000, 0.0000000000000000000, 0.0000000000000000000 ) ) ;
#19 = AXIS2_PLACEMENT_3D ( 'NONE', #96, #65, #196 ) ;
#20 = AXIS2_PLACEMENT_3D ( 'NONE', #87, #154, #136 ) ;
#21 = SHAPE_DEFINITION_REPRESENTATION ( #176, #147 ) ;
#22 = CC_DESIGN_APPROVAL ( #150, ( #97 ) ) ;
#23 = DATE_AND_TIME ( #163, #44 ) ;
#24 = CARTESIAN_POINT ( 'NONE',  ( 0.0000000000000000000, 0.0000000000000000000, 0.0000000000000000000 ) ) ;
#25 = PERSON_AND_ORGANIZATION ( #185, #101 ) ;
#26 = EDGE_LOOP ( 'NONE', ( #105 ) ) ;
#27 = CARTESIAN_POINT ( 'NONE',  ( 1.047444401652940007E-13, 7.498798913308738091E-34, 30.00000000000000000 ) ) ;
#28 = CC_DESIGN_PERSON_AND_ORGANIZATION_ASSIGNMENT ( #193, #8, ( #92 ) ) ;
#29 = DIRECTION ( 'NONE',  ( 4.275831445896958607E-31, 1.000000000000000000, 1.224646799147353207E-16 ) ) ;
#30 = EDGE_CURVE ( 'NONE', #2, #2, #201, .T. ) ;
#31 = CC_DESIGN_APPROVAL ( #116, ( #17 ) ) ;
#32 = CIRCLE ( 'NONE', #98, 0.1999999999999970690 ) ;
#33 = APPROVAL ( #79, 'UNSPECIFIED' ) ;
#34 = CONICAL_SURFACE ( 'NONE', #141, 0.1999999999999963751, 1.047197551196592746 ) ;
#35 = FACE_OUTER_BOUND ( 'NONE', #111, .T. ) ;
#36 = MECHANICAL_CONTEXT ( 'NONE', #71, 'mechanical' ) ;
#37 = PERSON_AND_ORGANIZATION ( #185, #101 ) ;
#38 = COORDINATED_UNIVERSAL_TIME_OFFSET ( 1, 0, .AHEAD. ) ;
#39 = EDGE_LOOP ( 'NONE', ( #122 ) ) ;
#40 = DATE_AND_TIME ( #145, #56 ) ;
#41 = DIRECTION ( 'NONE',  ( 0.0000000000000000000, 1.000000000000000000, 0.0000000000000000000 ) ) ;
#42 = FACE_OUTER_BOUND ( 'NONE', #131, .T. ) ;
#43 = UNCERTAINTY_MEASURE_WITH_UNIT (LENGTH_MEASURE( 1.000000000000000082E-05 ), #153, 'distance_accuracy_value', 'NONE');
#44 = LOCAL_TIME ( 11, 23, 3.000000000000000000, #181 ) ;
#45 = FACE_OUTER_BOUND ( 'NONE', #61, .T. ) ;
#46 = DIRECTION ( 'NONE',  ( 0.0000000000000000000, 0.0000000000000000000, 1.000000000000000000 ) ) ;
#47 = VERTEX_POINT ( 'NONE', #1 ) ;
#48 = APPLICATION_PROTOCOL_DEFINITION ( 'international standard', 'config_control_design', 1994, #71 ) ;
#49 = CC_DESIGN_SECURITY_CLASSIFICATION ( #17, ( #92 ) ) ;
#50 = CC_DESIGN_PERSON_AND_ORGANIZATION_ASSIGNMENT ( #51, #126, ( #97 ) ) ;
#51 = PERSON_AND_ORGANIZATION ( #185, #101 ) ;
#52 = APPROVAL_ROLE ( '' ) ;
#53 = FACE_OUTER_BOUND ( 'NONE', #128, .T. ) ;
#54 = DIRECTION ( 'NONE',  ( -3.491481338843133355E-15, 1.224646799147353207E-16, -1.000000000000000000 ) ) ;
#55 = DIRECTION ( 'NONE',  ( -3.491481338843133355E-15, 1.224646799147353207E-16, -1.000000000000000000 ) ) ;
#56 = LOCAL_TIME ( 11, 23, 3.000000000000000000, #38 ) ;
#57 = ADVANCED_FACE ( 'NONE', ( #53, #182 ), #164, .T. ) ;
#58 = VERTEX_POINT ( 'NONE', #59 ) ;
#59 = CARTESIAN_POINT ( 'NONE',  ( 4.031615381703249862E-16, 0.1999999999999963474, 0.1154700538379244135 ) ) ;
#60 = CARTESIAN_POINT ( 'NONE',  ( 0.0000000000000000000, 0.0000000000000000000, 0.0000000000000000000 ) ) ;
#61 = EDGE_LOOP ( 'NONE', ( #82 ) ) ;
#62 = PERSON_AND_ORGANIZATION_ROLE ( 'classification_officer' ) ;
#63 = ORIENTED_EDGE ( 'NONE', *, *, #30, .F. ) ;
#64 = APPROVAL_DATE_TIME ( #108, #33 ) ;
#65 = DIRECTION ( 'NONE',  ( -3.491481338843133355E-15, 1.224646799147353207E-16, -1.000000000000000000 ) ) ;
#66 = DIRECTION ( 'NONE',  ( 0.0000000000000000000, 1.000000000000000000, 0.0000000000000000000 ) ) ;
#67 = AXIS2_PLACEMENT_3D ( 'NONE', #10, #54, #112 ) ;
#68 = DIRECTION ( 'NONE',  ( 4.814824860968177214E-31, 1.000000000000000000, 1.355252715606905194E-16 ) ) ;
#69 = APPLICATION_CONTEXT ( 'configuration controlled 3d designs of mechanical parts and assemblies' ) ;
#70 = LOCAL_TIME ( 11, 23, 3.000000000000000000, #123 ) ;
#71 = APPLICATION_CONTEXT ( 'configuration controlled 3d designs of mechanical parts and assemblies' ) ;
#72 = EDGE_CURVE ( 'NONE', #58, #58, #180, .T. ) ;
#73 = VERTEX_POINT ( 'NONE', #102 ) ;
#74 = DIRECTION ( 'NONE',  ( -3.491481338843133355E-15, 1.224646799147353207E-16, -1.000000000000000000 ) ) ;
#75 = PERSON_AND_ORGANIZATION ( #185, #101 ) ;
#76 = APPROVAL_ROLE ( '' ) ;
#77 = EDGE_LOOP ( 'NONE', ( #190 ) ) ;
#78 = PERSON_AND_ORGANIZATION ( #185, #101 ) ;
#79 = APPROVAL_STATUS ( 'not_yet_approved' ) ;
#80 = AXIS2_PLACEMENT_3D ( 'NONE', #197, #165, #66 ) ;
#81 = DIRECTION ( 'NONE',  ( -3.491481338843133355E-15, 1.224646799147353207E-16, -1.000000000000000000 ) ) ;
#82 = ORIENTED_EDGE ( 'NONE', *, *, #72, .F. ) ;
#83 = FACE_OUTER_BOUND ( 'NONE', #77, .T. ) ;
#84 = DIRECTION ( 'NONE',  ( -3.491481338843133355E-15, 1.224646799147353207E-16, -1.000000000000000000 ) ) ;
#85 = AXIS2_PLACEMENT_3D ( 'NONE', #27, #55, #184 ) ;
#86 = ADVANCED_FACE ( 'NONE', ( #133 ), #198, .F. ) ;
#87 = CARTESIAN_POINT ( 'NONE',  ( 2.094888803305880013E-14, 1.499759782661825449E-33, 6.000000000000000000 ) ) ;
#88 =( NAMED_UNIT ( * ) SI_UNIT ( $, .STERADIAN. ) SOLID_ANGLE_UNIT ( ) );
#89 = ORIENTED_EDGE ( 'NONE', *, *, #93, .T. ) ;
#90 = DIRECTION ( 'NONE',  ( 1.000000000000000000, 0.0000000000000000000, 0.0000000000000000000 ) ) ;
#91 = COORDINATED_UNIVERSAL_TIME_OFFSET ( 1, 0, .AHEAD. ) ;
#92 = PRODUCT_DEFINITION_FORMATION_WITH_SPECIFIED_SOURCE ( 'ANY', '', #152, .NOT_KNOWN. ) ;
#93 = EDGE_CURVE ( 'NONE', #47, #47, #114, .T. ) ;
#94 = ORIENTED_EDGE ( 'NONE', *, *, #72, .T. ) ;
#95 = APPROVAL_DATE_TIME ( #195, #116 ) ;
#96 = CARTESIAN_POINT ( 'NONE',  ( 1.047444401652940007E-13, -3.673940397442059178E-15, 30.00000000000000000 ) ) ;
#97 = PRODUCT_DEFINITION ( 'UNKNOWN', '', #92, #166 ) ;
#98 = AXIS2_PLACEMENT_3D ( 'NONE', #187, #169, #41 ) ;
#99 = CLOSED_SHELL ( 'NONE', ( #148, #57, #107, #86 ) ) ;
#100 = CC_DESIGN_PERSON_AND_ORGANIZATION_ASSIGNMENT ( #75, #155, ( #152 ) ) ;
#101 = ORGANIZATION ( 'UNSPECIFIED', 'UNSPECIFIED', '' ) ;
#102 = CARTESIAN_POINT ( 'NONE',  ( 2.094888803305880013E-14, 0.1999999999999963474, 6.000000000000000000 ) ) ;
#103 = DIRECTION ( 'NONE',  ( -4.275831445896958607E-31, -1.000000000000000000, -1.224646799147353207E-16 ) ) ;
#104 = CALENDAR_DATE ( 2021, 6, 10 ) ;
#105 = ORIENTED_EDGE ( 'NONE', *, *, #140, .T. ) ;
#106 = VERTEX_POINT ( 'NONE', #170 ) ;
#107 = ADVANCED_FACE ( 'NONE', ( #83, #144 ), #167, .T. ) ;
#108 = DATE_AND_TIME ( #142, #14 ) ;
#109 = AXIS2_PLACEMENT_3D ( 'NONE', #9, #160, #103 ) ;
#110 = EDGE_LOOP ( 'NONE', ( #89 ) ) ;
#111 = EDGE_LOOP ( 'NONE', ( #138 ) ) ;
#112 = DIRECTION ( 'NONE',  ( 0.0000000000000000000, 1.000000000000000000, 0.0000000000000000000 ) ) ;
#113 = CC_DESIGN_PERSON_AND_ORGANIZATION_ASSIGNMENT ( #178, #139, ( #92 ) ) ;
#114 = CIRCLE ( 'NONE', #80, 0.2000000000000000111 ) ;
#115 = CIRCLE ( 'NONE', #149, 0.1999999999999970690 ) ;
#116 = APPROVAL ( #124, 'UNSPECIFIED' ) ;
#117 = CARTESIAN_POINT ( 'NONE',  ( 4.031615381703248876E-16, -1.414100318299866683E-17, 0.1154700538379243857 ) ) ;
#118 = DIRECTION ( 'NONE',  ( 0.0000000000000000000, 1.000000000000000000, 0.0000000000000000000 ) ) ;
#119 = FACE_OUTER_BOUND ( 'NONE', #26, .T. ) ;
#120 = DIRECTION ( 'NONE',  ( 4.275831445896958607E-31, 1.000000000000000000, 1.224646799147353207E-16 ) ) ;
#121 = PERSON_AND_ORGANIZATION ( #185, #101 ) ;
#122 = ORIENTED_EDGE ( 'NONE', *, *, #30, .T. ) ;
#123 = COORDINATED_UNIVERSAL_TIME_OFFSET ( 1, 0, .AHEAD. ) ;
#124 = APPROVAL_STATUS ( 'not_yet_approved' ) ;
#125 = ADVANCED_FACE ( 'NONE', ( #42 ), #34, .T. ) ;
#126 = PERSON_AND_ORGANIZATION_ROLE ( 'creator' ) ;
#127 = PLANE ( 'NONE',  #109 ) ;
#128 = EDGE_LOOP ( 'NONE', ( #172 ) ) ;
#129 = APPROVAL_DATE_TIME ( #162, #150 ) ;
#130 = FACE_OUTER_BOUND ( 'NONE', #179, .T. ) ;
#131 = EDGE_LOOP ( 'NONE', ( #94 ) ) ;
#132 = AXIS2_PLACEMENT_3D ( 'NONE', #18, #74, #120 ) ;
#133 = FACE_OUTER_BOUND ( 'NONE', #161, .T. ) ;
#134 = AXIS2_PLACEMENT_3D ( 'NONE', #60, #46, #90 ) ;
#135 = EDGE_CURVE ( 'NONE', #106, #106, #115, .T. ) ;
#136 = DIRECTION ( 'NONE',  ( -4.275831445896958607E-31, -1.000000000000000000, -1.224646799147353207E-16 ) ) ;
#137 =( NAMED_UNIT ( * ) PLANE_ANGLE_UNIT ( ) SI_UNIT ( $, .RADIAN. ) );
#138 = ORIENTED_EDGE ( 'NONE', *, *, #140, .F. ) ;
#139 = PERSON_AND_ORGANIZATION_ROLE ( 'creator' ) ;
#140 = EDGE_CURVE ( 'NONE', #73, #73, #32, .T. ) ;
#141 = AXIS2_PLACEMENT_3D ( 'NONE', #117, #186, #168 ) ;
#142 = CALENDAR_DATE ( 2021, 6, 10 ) ;
#143 = ORIENTED_EDGE ( 'NONE', *, *, #135, .T. ) ;
#144 = FACE_BOUND ( 'NONE', #39, .T. ) ;
#145 = CALENDAR_DATE ( 2021, 6, 10 ) ;
#146 = CLOSED_SHELL ( 'NONE', ( #125, #183, #202 ) ) ;
#147 = ADVANCED_BREP_SHAPE_REPRESENTATION ( '953186', ( #13, #5, #134 ), #200 ) ;
#148 = ADVANCED_FACE ( 'NONE', ( #130 ), #127, .F. ) ;
#149 = AXIS2_PLACEMENT_3D ( 'NONE', #203, #151, #118 ) ;
#150 = APPROVAL ( #173, 'UNSPECIFIED' ) ;
#151 = DIRECTION ( 'NONE',  ( -3.491481338843133355E-15, 1.224646799147353207E-16, -1.000000000000000000 ) ) ;
#152 = PRODUCT ( '953186', '953186', '', ( #36 ) ) ;
#153 =( LENGTH_UNIT ( ) NAMED_UNIT ( * ) SI_UNIT ( .MILLI., .METRE. ) );
#154 = DIRECTION ( 'NONE',  ( 3.491481338843133355E-15, -1.224646799147353207E-16, 1.000000000000000000 ) ) ;
#155 = PERSON_AND_ORGANIZATION_ROLE ( 'design_owner' ) ;
#156 = AXIS2_PLACEMENT_3D ( 'NONE', #24, #81, #29 ) ;
#157 = CALENDAR_DATE ( 2021, 6, 10 ) ;
#158 = CC_DESIGN_APPROVAL ( #33, ( #92 ) ) ;
#159 = DATE_TIME_ROLE ( 'creation_date' ) ;
#160 = DIRECTION ( 'NONE',  ( 3.491481338843133355E-15, -1.224646799147353207E-16, 1.000000000000000000 ) ) ;
#161 = EDGE_LOOP ( 'NONE', ( #63 ) ) ;
#162 = DATE_AND_TIME ( #104, #70 ) ;
#163 = CALENDAR_DATE ( 2021, 6, 10 ) ;
#164 = CYLINDRICAL_SURFACE ( 'NONE', #156, 0.1999999999999985401 ) ;
#165 = DIRECTION ( 'NONE',  ( -3.491481338843133355E-15, 1.224646799147353207E-16, -1.000000000000000000 ) ) ;
#166 = DESIGN_CONTEXT ( 'detailed design', #69, 'design' ) ;
#167 = CONICAL_SURFACE ( 'NONE', #67, 0.1000000000000000194, 0.7853981633974512766 ) ;
#168 = DIRECTION ( 'NONE',  ( -4.814824860968177214E-31, -1.000000000000000000, -1.355252715606905194E-16 ) ) ;
#169 = DIRECTION ( 'NONE',  ( -3.491481338843133355E-15, 1.224646799147353207E-16, -1.000000000000000000 ) ) ;
#170 = CARTESIAN_POINT ( 'NONE',  ( 2.094888803305880013E-14, 0.1999999999999963474, 6.000000000000000000 ) ) ;
#171 = PLANE ( 'NONE',  #20 ) ;
#172 = ORIENTED_EDGE ( 'NONE', *, *, #135, .F. ) ;
#173 = APPROVAL_STATUS ( 'not_yet_approved' ) ;
#174 = CC_DESIGN_DATE_AND_TIME_ASSIGNMENT ( #23, #159, ( #97 ) ) ;
#175 = AXIS2_PLACEMENT_3D ( 'NONE', #12, #84, #68 ) ;
#176 = PRODUCT_DEFINITION_SHAPE ( 'NONE', 'NONE',  #97 ) ;
#177 = APPROVAL_PERSON_ORGANIZATION ( #37, #33, #52 ) ;
#178 = PERSON_AND_ORGANIZATION ( #185, #101 ) ;
#179 = EDGE_LOOP ( 'NONE', ( #143 ) ) ;
#180 = CIRCLE ( 'NONE', #175, 0.1999999999999963751 ) ;
#181 = COORDINATED_UNIVERSAL_TIME_OFFSET ( 1, 0, .AHEAD. ) ;
#182 = FACE_OUTER_BOUND ( 'NONE', #110, .T. ) ;
#183 = ADVANCED_FACE ( 'NONE', ( #45, #119 ), #189, .T. ) ;
#184 = DIRECTION ( 'NONE',  ( 4.275831445896958607E-31, 1.000000000000000000, 1.224646799147353207E-16 ) ) ;
#185 = PERSON ( 'UNSPECIFIED', 'UNSPECIFIED', 'UNSPECIFIED', ('UNSPECIFIED'), ('UNSPECIFIED'), ('UNSPECIFIED') ) ;
#186 = DIRECTION ( 'NONE',  ( 3.491481338843133355E-15, -1.224646799147353207E-16, 1.000000000000000000 ) ) ;
#187 = CARTESIAN_POINT ( 'NONE',  ( 2.094888803305880013E-14, -7.347880794884119736E-16, 6.000000000000000000 ) ) ;
#188 = APPROVAL_PERSON_ORGANIZATION ( #121, #150, #76 ) ;
#189 = CYLINDRICAL_SURFACE ( 'NONE', #132, 0.1999999999999967359 ) ;
#190 = ORIENTED_EDGE ( 'NONE', *, *, #93, .F. ) ;
#191 = CARTESIAN_POINT ( 'NONE',  ( 1.047444401652940007E-13, 0.09999999999999634182, 30.00000000000000000 ) ) ;
#192 = LOCAL_TIME ( 11, 23, 3.000000000000000000, #6 ) ;
#193 = PERSON_AND_ORGANIZATION ( #185, #101 ) ;
#194 = DATE_TIME_ROLE ( 'classification_date' ) ;
#195 = DATE_AND_TIME ( #157, #192 ) ;
#196 = DIRECTION ( 'NONE',  ( 0.0000000000000000000, 1.000000000000000000, 0.0000000000000000000 ) ) ;
#197 = CARTESIAN_POINT ( 'NONE',  ( 1.043952920314096810E-13, -3.661693929450586610E-15, 29.89999999999999858 ) ) ;
#198 = PLANE ( 'NONE',  #85 ) ;
#199 = PRODUCT_RELATED_PRODUCT_CATEGORY ( 'detail', '', ( #152 ) ) ;
#200 =( GEOMETRIC_REPRESENTATION_CONTEXT ( 3 ) GLOBAL_UNCERTAINTY_ASSIGNED_CONTEXT ( ( #43 ) ) GLOBAL_UNIT_ASSIGNED_CONTEXT ( ( #153, #137, #88 ) ) REPRESENTATION_CONTEXT ( 'NONE', 'WORKASPACE' ) );
#201 = CIRCLE ( 'NONE', #19, 0.1000000000000000194 ) ;
#202 = ADVANCED_FACE ( 'NONE', ( #35 ), #171, .T. ) ;
#203 = CARTESIAN_POINT ( 'NONE',  ( 2.094888803305880013E-14, -7.347880794884119736E-16, 6.000000000000000000 ) ) ;
ENDSEC;
END-ISO-10303-21;
