ISO-10303-21;
HEADER;
FILE_DESCRIPTION (( 'STEP AP203' ),
    '1' );
FILE_NAME ('953171.step',
    '2021-09-03T07:55:53',
    ( '' ),
    ( '' ),
    'SwSTEP 2.0',
    'SolidWorks 2019',
    '' );
FILE_SCHEMA (( 'CONFIG_CONTROL_DESIGN' ));
ENDSEC;

DATA;
#1 = PLANE ( 'NONE',  #332 ) ;
#2 = DIRECTION ( 'NONE',  ( -4.275831445896958607E-31, -1.000000000000000000, -1.224646799147353207E-16 ) ) ;
#3 = ADVANCED_FACE ( 'NONE', ( #135 ), #1, .T. ) ;
#4 = ORIENTED_EDGE ( 'NONE', *, *, #79, .F. ) ;
#5 = ORIENTED_EDGE ( 'NONE', *, *, #142, .T. ) ;
#6 = ORIENTED_EDGE ( 'NONE', *, *, #142, .F. ) ;
#7 = DIRECTION ( 'NONE',  ( 1.798245827342160317E-15, -0.8571673007021098911, 0.5150380749100582634 ) ) ;
#8 = CARTESIAN_POINT ( 'NONE',  ( 1.047444401652940007E-13, 0.1249999999999963224, 30.00000000000000000 ) ) ;
#9 = PRODUCT ( '953171', '953171', '', ( #119 ) ) ;
#10 = CARTESIAN_POINT ( 'NONE',  ( 0.0000000000000000000, 0.0000000000000000000, 0.0000000000000000000 ) ) ;
#11 = PRODUCT_DEFINITION_FORMATION_WITH_SPECIFIED_SOURCE ( 'ANY', '', #9, .NOT_KNOWN. ) ;
#12 = ADVANCED_FACE ( 'NONE', ( #128 ), #234, .F. ) ;
#13 = CIRCLE ( 'NONE', #209, 0.2249999999999963696 ) ;
#14 = DIRECTION ( 'NONE',  ( 0.0000000000000000000, 1.000000000000000000, 0.0000000000000000000 ) ) ;
#15 = CARTESIAN_POINT ( 'NONE',  ( 1.047444401652940007E-13, -3.673940397442059178E-15, 30.00000000000000000 ) ) ;
#16 = PERSON_AND_ORGANIZATION ( #25, #131 ) ;
#17 =( LENGTH_UNIT ( ) NAMED_UNIT ( * ) SI_UNIT ( .MILLI., .METRE. ) );
#18 = AXIS2_PLACEMENT_3D ( 'NONE', #208, #287, #2 ) ;
#19 = CARTESIAN_POINT ( 'NONE',  ( 1.043952920314096810E-13, 0.2249999999999963418, 29.89999999999999858 ) ) ;
#20 = AXIS2_PLACEMENT_3D ( 'NONE', #10, #269, #143 ) ;
#21 = EDGE_CURVE ( 'NONE', #185, #83, #279, .T. ) ;
#22 = DIRECTION ( 'NONE',  ( 1.903218546456022717E-15, 0.8571673007021097801, 0.5150380749100585964 ) ) ;
#23 = CARTESIAN_POINT ( 'NONE',  ( 1.047444401652940007E-13, -3.673940397442059178E-15, 30.00000000000000000 ) ) ;
#24 = LOCAL_TIME ( 9, 55, 53.00000000000000000, #266 ) ;
#25 = PERSON ( 'UNSPECIFIED', 'UNSPECIFIED', 'UNSPECIFIED', ('UNSPECIFIED'), ('UNSPECIFIED'), ('UNSPECIFIED') ) ;
#26 = CARTESIAN_POINT ( 'NONE',  ( 2.094888803305880013E-14, 1.687229755494556966E-33, 6.000000000000000000 ) ) ;
#27 = ORIENTED_EDGE ( 'NONE', *, *, #222, .T. ) ;
#28 = ORIENTED_EDGE ( 'NONE', *, *, #182, .T. ) ;
#29 = APPROVAL_PERSON_ORGANIZATION ( #161, #280, #198 ) ;
#30 = ADVANCED_FACE ( 'NONE', ( #267 ), #321, .T. ) ;
#31 = ORIENTED_EDGE ( 'NONE', *, *, #197, .F. ) ;
#32 = ORIENTED_EDGE ( 'NONE', *, *, #220, .F. ) ;
#33 = EDGE_CURVE ( 'NONE', #210, #51, #89, .T. ) ;
#34 = FACE_OUTER_BOUND ( 'NONE', #285, .T. ) ;
#35 = VECTOR ( 'NONE', #221, 1000.000000000000114 ) ;
#36 = APPROVAL_STATUS ( 'not_yet_approved' ) ;
#37 = DIRECTION ( 'NONE',  ( -3.491481338843133355E-15, 1.224646799147353207E-16, -1.000000000000000000 ) ) ;
#38 = COORDINATED_UNIVERSAL_TIME_OFFSET ( 1, 0, .AHEAD. ) ;
#39 = DIRECTION ( 'NONE',  ( -3.491481338843133355E-15, 1.224646799147353207E-16, -1.000000000000000000 ) ) ;
#40 = DATE_AND_TIME ( #139, #223 ) ;
#41 = CARTESIAN_POINT ( 'NONE',  ( 4.995806216614161179E-16, 0.2249999999999963418, 0.1351936392812003729 ) ) ;
#42 = APPROVAL_ROLE ( '' ) ;
#43 = CIRCLE ( 'NONE', #233, 0.2250000000000000056 ) ;
#44 = CARTESIAN_POINT ( 'NONE',  ( 4.720260686806009660E-16, -0.2249999999999963973, 0.1351936392812003174 ) ) ;
#45 = MANIFOLD_SOLID_BREP ( 'Corps-Déplacer/Copier1[2]', #304 ) ;
#46 = DIRECTION ( 'NONE',  ( -3.491481338843133355E-15, 1.224646799147353207E-16, -1.000000000000000000 ) ) ;
#47 = CARTESIAN_POINT ( 'NONE',  ( 0.0000000000000000000, 0.0000000000000000000, 0.0000000000000000000 ) ) ;
#48 = VECTOR ( 'NONE', #22, 999.9999999999998863 ) ;
#49 = CC_DESIGN_APPROVAL ( #118, ( #127 ) ) ;
#50 =( GEOMETRIC_REPRESENTATION_CONTEXT ( 3 ) GLOBAL_UNCERTAINTY_ASSIGNED_CONTEXT ( ( #276 ) ) GLOBAL_UNIT_ASSIGNED_CONTEXT ( ( #17, #258, #275 ) ) REPRESENTATION_CONTEXT ( 'NONE', 'WORKASPACE' ) );
#51 = VERTEX_POINT ( 'NONE', #169 ) ;
#52 = ADVANCED_FACE ( 'NONE', ( #196 ), #227, .T. ) ;
#53 = ORIENTED_EDGE ( 'NONE', *, *, #104, .F. ) ;
#54 = VERTEX_POINT ( 'NONE', #189 ) ;
#55 = VERTEX_POINT ( 'NONE', #41 ) ;
#56 = VECTOR ( 'NONE', #293, 1000.000000000000000 ) ;
#57 = EDGE_CURVE ( 'NONE', #55, #132, #13, .T. ) ;
#58 = ORIENTED_EDGE ( 'NONE', *, *, #73, .F. ) ;
#59 = DIRECTION ( 'NONE',  ( 4.275831445896958607E-31, 1.000000000000000000, 1.224646799147353454E-16 ) ) ;
#60 = PERSON_AND_ORGANIZATION_ROLE ( 'creator' ) ;
#61 = CARTESIAN_POINT ( 'NONE',  ( 1.047597482502833331E-13, -0.1250000000000036915, 30.00000000000000000 ) ) ;
#62 = CALENDAR_DATE ( 2021, 3, 9 ) ;
#63 = DIRECTION ( 'NONE',  ( -3.491481338843133355E-15, 1.224646799147353207E-16, -1.000000000000000000 ) ) ;
#64 = APPROVAL_STATUS ( 'not_yet_approved' ) ;
#65 = CARTESIAN_POINT ( 'NONE',  ( 2.094888803305880013E-14, -7.347880794884119736E-16, 6.000000000000000000 ) ) ;
#66 = CARTESIAN_POINT ( 'NONE',  ( 1.047444401652940007E-13, 9.373498641636057535E-34, 30.00000000000000000 ) ) ;
#67 = APPROVAL_PERSON_ORGANIZATION ( #247, #118, #42 ) ;
#68 = DIRECTION ( 'NONE',  ( -3.491481338843133355E-15, 1.224646799147353207E-16, -1.000000000000000000 ) ) ;
#69 = CARTESIAN_POINT ( 'NONE',  ( 9.620620753268016297E-32, 0.2249999999999967026, 2.755455298081504718E-17 ) ) ;
#70 = VECTOR ( 'NONE', #117, 1000.000000000000000 ) ;
#71 = AXIS2_PLACEMENT_3D ( 'NONE', #271, #218, #59 ) ;
#72 = ORIENTED_EDGE ( 'NONE', *, *, #73, .T. ) ;
#73 = EDGE_CURVE ( 'NONE', #158, #154, #87, .T. ) ;
#74 = AXIS2_PLACEMENT_3D ( 'NONE', #230, #176, #278 ) ;
#75 = EDGE_LOOP ( 'NONE', ( #31, #262, #27 ) ) ;
#76 = CC_DESIGN_PERSON_AND_ORGANIZATION_ASSIGNMENT ( #171, #217, ( #127 ) ) ;
#77 = ORIENTED_EDGE ( 'NONE', *, *, #21, .F. ) ;
#78 = EDGE_LOOP ( 'NONE', ( #77, #320 ) ) ;
#79 = EDGE_CURVE ( 'NONE', #102, #132, #243, .T. ) ;
#80 = EDGE_LOOP ( 'NONE', ( #289, #28 ) ) ;
#81 = AXIS2_PLACEMENT_3D ( 'NONE', #23, #307, #174 ) ;
#82 = ADVANCED_FACE ( 'NONE', ( #163 ), #96, .T. ) ;
#83 = VERTEX_POINT ( 'NONE', #145 ) ;
#84 = CARTESIAN_POINT ( 'NONE',  ( 4.720260686806010646E-16, -1.655644576108038917E-17, 0.1351936392812003451 ) ) ;
#85 = CARTESIAN_POINT ( 'NONE',  ( 1.047444401652940007E-13, -3.673940397442059178E-15, 30.00000000000000000 ) ) ;
#86 = CIRCLE ( 'NONE', #213, 0.2250000000000000056 ) ;
#87 = LINE ( 'NONE', #61, #249 ) ;
#88 = DATE_AND_TIME ( #141, #286 ) ;
#89 = LINE ( 'NONE', #186, #70 ) ;
#90 = DIRECTION ( 'NONE',  ( 4.275831445896958607E-31, 1.000000000000000000, 1.224646799147353207E-16 ) ) ;
#91 = APPROVAL_DATE_TIME ( #40, #280 ) ;
#92 = CC_DESIGN_APPROVAL ( #280, ( #310 ) ) ;
#93 = FACE_OUTER_BOUND ( 'NONE', #312, .T. ) ;
#94 = DIRECTION ( 'NONE',  ( 4.275831445896958607E-31, 1.000000000000000000, 1.224646799147353454E-16 ) ) ;
#95 = CARTESIAN_POINT ( 'NONE',  ( 2.755455298081517353E-17, -0.2249999999999985345, -2.755455298081535841E-17 ) ) ;
#96 = CONICAL_SURFACE ( 'NONE', #173, 0.2249999999999963696, 1.029744258676649649 ) ;
#97 = DIRECTION ( 'NONE',  ( -3.491481338843133355E-15, 1.224646799147353207E-16, -1.000000000000000000 ) ) ;
#98 = ORIENTED_EDGE ( 'NONE', *, *, #182, .F. ) ;
#99 = DIRECTION ( 'NONE',  ( 3.491481338843133355E-15, -1.224646799147353207E-16, 1.000000000000000000 ) ) ;
#100 = CONICAL_SURFACE ( 'NONE', #315, 0.2249999999999963696, 1.029744258676649649 ) ;
#101 = ORIENTED_EDGE ( 'NONE', *, *, #104, .T. ) ;
#102 = VERTEX_POINT ( 'NONE', #115 ) ;
#103 = ORIENTED_EDGE ( 'NONE', *, *, #313, .T. ) ;
#104 = EDGE_CURVE ( 'NONE', #54, #210, #147, .T. ) ;
#105 = ORIENTED_EDGE ( 'NONE', *, *, #324, .F. ) ;
#106 = CIRCLE ( 'NONE', #311, 0.2249999999999970635 ) ;
#107 = CARTESIAN_POINT ( 'NONE',  ( 4.720260686806009660E-16, -0.2249999999999963973, 0.1351936392812003174 ) ) ;
#108 = APPROVAL_ROLE ( '' ) ;
#109 = DIRECTION ( 'NONE',  ( 0.0000000000000000000, 1.000000000000000000, 0.0000000000000000000 ) ) ;
#110 = CARTESIAN_POINT ( 'NONE',  ( 4.720260686806010646E-16, -1.655644576108038917E-17, 0.1351936392812003451 ) ) ;
#111 = AXIS2_PLACEMENT_3D ( 'NONE', #152, #232, #125 ) ;
#112 = CC_DESIGN_SECURITY_CLASSIFICATION ( #127, ( #11 ) ) ;
#113 = APPLICATION_PROTOCOL_DEFINITION ( 'international standard', 'config_control_design', 1994, #194 ) ;
#114 = EDGE_CURVE ( 'NONE', #54, #158, #337, .T. ) ;
#115 = CARTESIAN_POINT ( 'NONE',  ( 0.0000000000000000000, 0.0000000000000000000, 0.0000000000000000000 ) ) ;
#116 = APPROVAL_STATUS ( 'not_yet_approved' ) ;
#117 = DIRECTION ( 'NONE',  ( -3.491481338843133355E-15, 1.224646799147353207E-16, -1.000000000000000000 ) ) ;
#118 = APPROVAL ( #116, 'UNSPECIFIED' ) ;
#119 = MECHANICAL_CONTEXT ( 'NONE', #194, 'mechanical' ) ;
#120 = CYLINDRICAL_SURFACE ( 'NONE', #164, 0.2249999999999985345 ) ;
#121 = AXIS2_PLACEMENT_3D ( 'NONE', #66, #63, #265 ) ;
#122 = DIRECTION ( 'NONE',  ( 0.0000000000000000000, 1.000000000000000000, 0.0000000000000000000 ) ) ;
#123 = DESIGN_CONTEXT ( 'detailed design', #283, 'design' ) ;
#124 = ADVANCED_FACE ( 'NONE', ( #323 ), #100, .T. ) ;
#125 = DIRECTION ( 'NONE',  ( 0.0000000000000000000, 1.000000000000000000, 0.0000000000000000000 ) ) ;
#126 = ORIENTED_EDGE ( 'NONE', *, *, #284, .F. ) ;
#127 = SECURITY_CLASSIFICATION ( '', '', #244 ) ;
#128 = FACE_OUTER_BOUND ( 'NONE', #80, .T. ) ;
#129 = EDGE_LOOP ( 'NONE', ( #105, #211, #180, #98 ) ) ;
#130 = AXIS2_PLACEMENT_3D ( 'NONE', #65, #172, #301 ) ;
#131 = ORGANIZATION ( 'UNSPECIFIED', 'UNSPECIFIED', '' ) ;
#132 = VERTEX_POINT ( 'NONE', #107 ) ;
#133 = ADVANCED_FACE ( 'NONE', ( #34 ), #240, .T. ) ;
#134 = ORIENTED_EDGE ( 'NONE', *, *, #162, .F. ) ;
#135 = FACE_OUTER_BOUND ( 'NONE', #78, .T. ) ;
#136 = CARTESIAN_POINT ( 'NONE',  ( 2.094888803305880013E-14, -7.347880794884119736E-16, 6.000000000000000000 ) ) ;
#137 = CLOSED_SHELL ( 'NONE', ( #133, #52, #12, #193, #257, #167 ) ) ;
#138 = CC_DESIGN_APPROVAL ( #253, ( #11 ) ) ;
#139 = CALENDAR_DATE ( 2021, 3, 9 ) ;
#140 = CARTESIAN_POINT ( 'NONE',  ( 6.269964458521452019E-14, -0.2250000000000036693, 29.89999999999999858 ) ) ;
#141 = CALENDAR_DATE ( 2021, 3, 9 ) ;
#142 = EDGE_CURVE ( 'NONE', #158, #54, #306, .T. ) ;
#143 = DIRECTION ( 'NONE',  ( 4.275831445896958607E-31, 1.000000000000000000, 1.224646799147353207E-16 ) ) ;
#144 = PERSON_AND_ORGANIZATION ( #25, #131 ) ;
#145 = CARTESIAN_POINT ( 'NONE',  ( 1.073801160385048375E-14, -0.2249999999999977851, 6.000000000000000000 ) ) ;
#146 = APPROVAL_DATE_TIME ( #268, #118 ) ;
#147 = LINE ( 'NONE', #8, #35 ) ;
#148 = DIRECTION ( 'NONE',  ( 0.0000000000000000000, 1.000000000000000000, 0.0000000000000000000 ) ) ;
#149 = DIRECTION ( 'NONE',  ( 0.0000000000000000000, 1.000000000000000000, 0.0000000000000000000 ) ) ;
#150 = AXIS2_PLACEMENT_3D ( 'NONE', #85, #251, #14 ) ;
#151 = MANIFOLD_SOLID_BREP ( 'Corps-Déplacer/Copier1[1]', #137 ) ;
#152 = CARTESIAN_POINT ( 'NONE',  ( 2.094888803305880013E-14, -7.347880794884119736E-16, 6.000000000000000000 ) ) ;
#153 = CC_DESIGN_PERSON_AND_ORGANIZATION_ASSIGNMENT ( #16, #226, ( #9 ) ) ;
#154 = VERTEX_POINT ( 'NONE', #140 ) ;
#155 = ORIENTED_EDGE ( 'NONE', *, *, #313, .F. ) ;
#156 = VERTEX_POINT ( 'NONE', #330 ) ;
#157 = ORIENTED_EDGE ( 'NONE', *, *, #222, .F. ) ;
#158 = VERTEX_POINT ( 'NONE', #329 ) ;
#159 = ADVANCED_BREP_SHAPE_REPRESENTATION ( '953171', ( #151, #45, #229 ), #50 ) ;
#160 = FACE_OUTER_BOUND ( 'NONE', #238, .T. ) ;
#161 = PERSON_AND_ORGANIZATION ( #25, #131 ) ;
#162 = EDGE_CURVE ( 'NONE', #83, #132, #302, .T. ) ;
#163 = FACE_OUTER_BOUND ( 'NONE', #75, .T. ) ;
#164 = AXIS2_PLACEMENT_3D ( 'NONE', #334, #175, #90 ) ;
#165 = APPROVAL_DATE_TIME ( #88, #253 ) ;
#166 = DIRECTION ( 'NONE',  ( -2.382254525458708792E-15, -0.7071067811865495711, -0.7071067811865455743 ) ) ;
#167 = ADVANCED_FACE ( 'NONE', ( #160 ), #294, .F. ) ;
#168 = PERSON_AND_ORGANIZATION_ROLE ( 'creator' ) ;
#169 = CARTESIAN_POINT ( 'NONE',  ( 2.094888803305880013E-14, 0.2249999999999963418, 6.000000000000000000 ) ) ;
#170 = PRODUCT_RELATED_PRODUCT_CATEGORY ( 'detail', '', ( #9 ) ) ;
#171 = PERSON_AND_ORGANIZATION ( #25, #131 ) ;
#172 = DIRECTION ( 'NONE',  ( -3.491481338843133355E-15, 1.224646799147353207E-16, -1.000000000000000000 ) ) ;
#173 = AXIS2_PLACEMENT_3D ( 'NONE', #272, #327, #241 ) ;
#174 = DIRECTION ( 'NONE',  ( 0.0000000000000000000, 1.000000000000000000, 0.0000000000000000000 ) ) ;
#175 = DIRECTION ( 'NONE',  ( -3.491481338843133355E-15, 1.224646799147353207E-16, -1.000000000000000000 ) ) ;
#176 = DIRECTION ( 'NONE',  ( -3.491481338843133355E-15, 1.224646799147353207E-16, -1.000000000000000000 ) ) ;
#177 = AXIS2_PLACEMENT_3D ( 'NONE', #282, #199, #148 ) ;
#178 = CARTESIAN_POINT ( 'NONE',  ( 2.094888803305880013E-14, 0.2249999999999963418, 6.000000000000000000 ) ) ;
#179 = AXIS2_PLACEMENT_3D ( 'NONE', #47, #46, #94 ) ;
#180 = ORIENTED_EDGE ( 'NONE', *, *, #33, .T. ) ;
#181 = ORIENTED_EDGE ( 'NONE', *, *, #215, .T. ) ;
#182 = EDGE_CURVE ( 'NONE', #156, #51, #106, .T. ) ;
#183 = EDGE_LOOP ( 'NONE', ( #288, #237, #212, #317 ) ) ;
#184 = AXIS2_PLACEMENT_3D ( 'NONE', #15, #225, #187 ) ;
#185 = VERTEX_POINT ( 'NONE', #178 ) ;
#186 = CARTESIAN_POINT ( 'NONE',  ( 9.620620753268094025E-32, 0.2249999999999985345, 2.755455298081526905E-17 ) ) ;
#187 = DIRECTION ( 'NONE',  ( 0.0000000000000000000, 1.000000000000000000, 0.0000000000000000000 ) ) ;
#188 = DATE_TIME_ROLE ( 'creation_date' ) ;
#189 = CARTESIAN_POINT ( 'NONE',  ( 1.047444401652940007E-13, 0.1249999999999963224, 30.00000000000000000 ) ) ;
#190 = CIRCLE ( 'NONE', #177, 0.2249999999999970635 ) ;
#191 = DIRECTION ( 'NONE',  ( 3.491481338843133355E-15, -1.224646799147353207E-16, 1.000000000000000000 ) ) ;
#192 = CC_DESIGN_PERSON_AND_ORGANIZATION_ASSIGNMENT ( #274, #168, ( #11 ) ) ;
#193 = ADVANCED_FACE ( 'NONE', ( #254 ), #120, .T. ) ;
#194 = APPLICATION_CONTEXT ( 'configuration controlled 3d designs of mechanical parts and assemblies' ) ;
#195 = PERSON_AND_ORGANIZATION_ROLE ( 'design_supplier' ) ;
#196 = FACE_OUTER_BOUND ( 'NONE', #292, .T. ) ;
#197 = EDGE_CURVE ( 'NONE', #102, #55, #277, .T. ) ;
#198 = APPROVAL_ROLE ( '' ) ;
#199 = DIRECTION ( 'NONE',  ( -3.491481338843133355E-15, 1.224646799147353207E-16, -1.000000000000000000 ) ) ;
#200 = CIRCLE ( 'NONE', #111, 0.2249999999999970635 ) ;
#201 = PERSON_AND_ORGANIZATION ( #25, #131 ) ;
#202 = DIRECTION ( 'NONE',  ( -3.491481338843133355E-15, 1.224646799147353207E-16, -1.000000000000000000 ) ) ;
#203 = DIRECTION ( 'NONE',  ( -3.491481338843133355E-15, 1.224646799147353207E-16, -1.000000000000000000 ) ) ;
#204 = EDGE_CURVE ( 'NONE', #185, #55, #308, .T. ) ;
#205 = CYLINDRICAL_SURFACE ( 'NONE', #179, 0.2249999999999967026 ) ;
#206 = ADVANCED_FACE ( 'NONE', ( #336 ), #205, .T. ) ;
#207 = APPROVAL_PERSON_ORGANIZATION ( #328, #253, #108 ) ;
#208 = CARTESIAN_POINT ( 'NONE',  ( 2.094888803305880013E-14, 1.687229755494556966E-33, 6.000000000000000000 ) ) ;
#209 = AXIS2_PLACEMENT_3D ( 'NONE', #110, #39, #245 ) ;
#210 = VERTEX_POINT ( 'NONE', #19 ) ;
#211 = ORIENTED_EDGE ( 'NONE', *, *, #220, .T. ) ;
#212 = ORIENTED_EDGE ( 'NONE', *, *, #57, .F. ) ;
#213 = AXIS2_PLACEMENT_3D ( 'NONE', #309, #231, #335 ) ;
#214 = EDGE_LOOP ( 'NONE', ( #4, #316, #263 ) ) ;
#215 = EDGE_CURVE ( 'NONE', #83, #185, #190, .T. ) ;
#216 = CARTESIAN_POINT ( 'NONE',  ( 1.047444401652940007E-13, -3.673940397442059178E-15, 30.00000000000000000 ) ) ;
#217 = PERSON_AND_ORGANIZATION_ROLE ( 'classification_officer' ) ;
#218 = DIRECTION ( 'NONE',  ( -3.491481338843133355E-15, 1.224646799147353207E-16, -1.000000000000000000 ) ) ;
#219 = COORDINATED_UNIVERSAL_TIME_OFFSET ( 1, 0, .AHEAD. ) ;
#220 = EDGE_CURVE ( 'NONE', #154, #210, #43, .T. ) ;
#221 = DIRECTION ( 'NONE',  ( -2.468850131082257455E-15, 0.7071067811865497932, -0.7071067811865453523 ) ) ;
#222 = EDGE_CURVE ( 'NONE', #132, #55, #291, .T. ) ;
#223 = LOCAL_TIME ( 9, 55, 53.00000000000000000, #228 ) ;
#224 = CALENDAR_DATE ( 2021, 3, 9 ) ;
#225 = DIRECTION ( 'NONE',  ( -3.491481338843133355E-15, 1.224646799147353207E-16, -1.000000000000000000 ) ) ;
#226 = PERSON_AND_ORGANIZATION_ROLE ( 'design_owner' ) ;
#227 = CYLINDRICAL_SURFACE ( 'NONE', #20, 0.2249999999999985345 ) ;
#228 = COORDINATED_UNIVERSAL_TIME_OFFSET ( 1, 0, .AHEAD. ) ;
#229 = AXIS2_PLACEMENT_3D ( 'NONE', #303, #252, #331 ) ;
#230 = CARTESIAN_POINT ( 'NONE',  ( 4.720260686806010646E-16, -1.655644576108038917E-17, 0.1351936392812003451 ) ) ;
#231 = DIRECTION ( 'NONE',  ( -3.491481338843133355E-15, 1.224646799147353207E-16, -1.000000000000000000 ) ) ;
#232 = DIRECTION ( 'NONE',  ( -3.491481338843133355E-15, 1.224646799147353207E-16, -1.000000000000000000 ) ) ;
#233 = AXIS2_PLACEMENT_3D ( 'NONE', #333, #203, #122 ) ;
#234 = PLANE ( 'NONE',  #18 ) ;
#235 = ORIENTED_EDGE ( 'NONE', *, *, #33, .F. ) ;
#236 = CC_DESIGN_DATE_AND_TIME_ASSIGNMENT ( #300, #188, ( #310 ) ) ;
#237 = ORIENTED_EDGE ( 'NONE', *, *, #162, .T. ) ;
#238 = EDGE_LOOP ( 'NONE', ( #260, #6 ) ) ;
#239 = ORIENTED_EDGE ( 'NONE', *, *, #204, .T. ) ;
#240 = CONICAL_SURFACE ( 'NONE', #150, 0.1250000000000000000, 0.7853981633974512766 ) ;
#241 = DIRECTION ( 'NONE',  ( -4.279844320860593210E-31, -1.000000000000000000, -1.204669080539468819E-16 ) ) ;
#242 = DATE_TIME_ROLE ( 'classification_date' ) ;
#243 = LINE ( 'NONE', #44, #273 ) ;
#244 = SECURITY_CLASSIFICATION_LEVEL ( 'unclassified' ) ;
#245 = DIRECTION ( 'NONE',  ( 4.279844320860593210E-31, 1.000000000000000000, 1.204669080539468819E-16 ) ) ;
#246 = CC_DESIGN_DATE_AND_TIME_ASSIGNMENT ( #295, #242, ( #127 ) ) ;
#247 = PERSON_AND_ORGANIZATION ( #25, #131 ) ;
#248 = DIRECTION ( 'NONE',  ( -4.279844320860593210E-31, -1.000000000000000000, -1.204669080539468819E-16 ) ) ;
#249 = VECTOR ( 'NONE', #166, 1000.000000000000114 ) ;
#250 = CALENDAR_DATE ( 2021, 3, 9 ) ;
#251 = DIRECTION ( 'NONE',  ( -3.491481338843133355E-15, 1.224646799147353207E-16, -1.000000000000000000 ) ) ;
#252 = DIRECTION ( 'NONE',  ( 0.0000000000000000000, 0.0000000000000000000, 1.000000000000000000 ) ) ;
#253 = APPROVAL ( #36, 'UNSPECIFIED' ) ;
#254 = FACE_OUTER_BOUND ( 'NONE', #129, .T. ) ;
#255 = AXIS2_PLACEMENT_3D ( 'NONE', #216, #37, #109 ) ;
#256 = CARTESIAN_POINT ( 'NONE',  ( 4.995806216614161179E-16, 0.2249999999999963418, 0.1351936392812003729 ) ) ;
#257 = ADVANCED_FACE ( 'NONE', ( #93 ), #326, .T. ) ;
#258 =( NAMED_UNIT ( * ) PLANE_ANGLE_UNIT ( ) SI_UNIT ( $, .RADIAN. ) );
#259 = LOCAL_TIME ( 9, 55, 53.00000000000000000, #219 ) ;
#260 = ORIENTED_EDGE ( 'NONE', *, *, #114, .F. ) ;
#261 = EDGE_LOOP ( 'NONE', ( #134, #181, #239, #157 ) ) ;
#262 = ORIENTED_EDGE ( 'NONE', *, *, #79, .T. ) ;
#263 = ORIENTED_EDGE ( 'NONE', *, *, #57, .T. ) ;
#264 = ORIENTED_EDGE ( 'NONE', *, *, #114, .T. ) ;
#265 = DIRECTION ( 'NONE',  ( 4.275831445896958607E-31, 1.000000000000000000, 1.224646799147353207E-16 ) ) ;
#266 = COORDINATED_UNIVERSAL_TIME_OFFSET ( 1, 0, .AHEAD. ) ;
#267 = FACE_OUTER_BOUND ( 'NONE', #261, .T. ) ;
#268 = DATE_AND_TIME ( #62, #259 ) ;
#269 = DIRECTION ( 'NONE',  ( -3.491481338843133355E-15, 1.224646799147353207E-16, -1.000000000000000000 ) ) ;
#270 = APPLICATION_PROTOCOL_DEFINITION ( 'international standard', 'config_control_design', 1994, #283 ) ;
#271 = CARTESIAN_POINT ( 'NONE',  ( 0.0000000000000000000, 0.0000000000000000000, 0.0000000000000000000 ) ) ;
#272 = CARTESIAN_POINT ( 'NONE',  ( 4.720260686806010646E-16, -1.655644576108038917E-17, 0.1351936392812003451 ) ) ;
#273 = VECTOR ( 'NONE', #7, 1000.000000000000000 ) ;
#274 = PERSON_AND_ORGANIZATION ( #25, #131 ) ;
#275 =( NAMED_UNIT ( * ) SI_UNIT ( $, .STERADIAN. ) SOLID_ANGLE_UNIT ( ) );
#276 = UNCERTAINTY_MEASURE_WITH_UNIT (LENGTH_MEASURE( 1.000000000000000082E-05 ), #17, 'distance_accuracy_value', 'NONE');
#277 = LINE ( 'NONE', #256, #48 ) ;
#278 = DIRECTION ( 'NONE',  ( 4.279844320860593210E-31, 1.000000000000000000, 1.204669080539468819E-16 ) ) ;
#279 = CIRCLE ( 'NONE', #130, 0.2249999999999970635 ) ;
#280 = APPROVAL ( #64, 'UNSPECIFIED' ) ;
#281 = VECTOR ( 'NONE', #97, 1000.000000000000000 ) ;
#282 = CARTESIAN_POINT ( 'NONE',  ( 2.094888803305880013E-14, -7.347880794884119736E-16, 6.000000000000000000 ) ) ;
#283 = APPLICATION_CONTEXT ( 'configuration controlled 3d designs of mechanical parts and assemblies' ) ;
#284 = EDGE_CURVE ( 'NONE', #51, #156, #200, .T. ) ;
#285 = EDGE_LOOP ( 'NONE', ( #264, #72, #155, #53 ) ) ;
#286 = LOCAL_TIME ( 9, 55, 53.00000000000000000, #38 ) ;
#287 = DIRECTION ( 'NONE',  ( 3.491481338843133355E-15, -1.224646799147353207E-16, 1.000000000000000000 ) ) ;
#288 = ORIENTED_EDGE ( 'NONE', *, *, #21, .T. ) ;
#289 = ORIENTED_EDGE ( 'NONE', *, *, #284, .T. ) ;
#290 = CC_DESIGN_PERSON_AND_ORGANIZATION_ASSIGNMENT ( #201, #60, ( #310 ) ) ;
#291 = CIRCLE ( 'NONE', #74, 0.2249999999999963696 ) ;
#292 = EDGE_LOOP ( 'NONE', ( #103, #318, #126, #235 ) ) ;
#293 = DIRECTION ( 'NONE',  ( -3.491481338843133355E-15, 1.224646799147353207E-16, -1.000000000000000000 ) ) ;
#294 = PLANE ( 'NONE',  #121 ) ;
#295 = DATE_AND_TIME ( #250, #319 ) ;
#296 = VECTOR ( 'NONE', #202, 1000.000000000000000 ) ;
#297 = CC_DESIGN_PERSON_AND_ORGANIZATION_ASSIGNMENT ( #144, #195, ( #11 ) ) ;
#298 = CARTESIAN_POINT ( 'NONE',  ( 2.755455298081495166E-17, -0.2249999999999967026, -2.755455298081513655E-17 ) ) ;
#299 = PRODUCT_DEFINITION_SHAPE ( 'NONE', 'NONE',  #310 ) ;
#300 = DATE_AND_TIME ( #224, #24 ) ;
#301 = DIRECTION ( 'NONE',  ( 0.0000000000000000000, 1.000000000000000000, 0.0000000000000000000 ) ) ;
#302 = LINE ( 'NONE', #298, #56 ) ;
#303 = CARTESIAN_POINT ( 'NONE',  ( 0.0000000000000000000, 0.0000000000000000000, 0.0000000000000000000 ) ) ;
#304 = CLOSED_SHELL ( 'NONE', ( #206, #124, #82, #30, #3 ) ) ;
#305 = LINE ( 'NONE', #95, #281 ) ;
#306 = CIRCLE ( 'NONE', #184, 0.1250000000000000000 ) ;
#307 = DIRECTION ( 'NONE',  ( -3.491481338843133355E-15, 1.224646799147353207E-16, -1.000000000000000000 ) ) ;
#308 = LINE ( 'NONE', #69, #296 ) ;
#309 = CARTESIAN_POINT ( 'NONE',  ( 1.043952920314096810E-13, -3.661693929450586610E-15, 29.89999999999999858 ) ) ;
#310 = PRODUCT_DEFINITION ( 'UNKNOWN', '', #11, #123 ) ;
#311 = AXIS2_PLACEMENT_3D ( 'NONE', #136, #68, #149 ) ;
#312 = EDGE_LOOP ( 'NONE', ( #58, #5, #101, #32 ) ) ;
#313 = EDGE_CURVE ( 'NONE', #210, #154, #86, .T. ) ;
#314 = DIRECTION ( 'NONE',  ( -4.275831445896958607E-31, -1.000000000000000000, -1.224646799147353207E-16 ) ) ;
#315 = AXIS2_PLACEMENT_3D ( 'NONE', #84, #191, #248 ) ;
#316 = ORIENTED_EDGE ( 'NONE', *, *, #197, .T. ) ;
#317 = ORIENTED_EDGE ( 'NONE', *, *, #204, .F. ) ;
#318 = ORIENTED_EDGE ( 'NONE', *, *, #324, .T. ) ;
#319 = LOCAL_TIME ( 9, 55, 53.00000000000000000, #322 ) ;
#320 = ORIENTED_EDGE ( 'NONE', *, *, #215, .F. ) ;
#321 = CYLINDRICAL_SURFACE ( 'NONE', #71, 0.2249999999999967026 ) ;
#322 = COORDINATED_UNIVERSAL_TIME_OFFSET ( 1, 0, .AHEAD. ) ;
#323 = FACE_OUTER_BOUND ( 'NONE', #214, .T. ) ;
#324 = EDGE_CURVE ( 'NONE', #154, #156, #305, .T. ) ;
#325 = SHAPE_DEFINITION_REPRESENTATION ( #299, #159 ) ;
#326 = CONICAL_SURFACE ( 'NONE', #81, 0.1250000000000000000, 0.7853981633974512766 ) ;
#327 = DIRECTION ( 'NONE',  ( 3.491481338843133355E-15, -1.224646799147353207E-16, 1.000000000000000000 ) ) ;
#328 = PERSON_AND_ORGANIZATION ( #25, #131 ) ;
#329 = CARTESIAN_POINT ( 'NONE',  ( 1.045912974173369151E-13, -0.1250000000000036915, 30.00000000000000000 ) ) ;
#330 = CARTESIAN_POINT ( 'NONE',  ( 6.269964458521492408E-14, -0.2249999999999977851, 6.000000000000000000 ) ) ;
#331 = DIRECTION ( 'NONE',  ( 1.000000000000000000, 0.0000000000000000000, 0.0000000000000000000 ) ) ;
#332 = AXIS2_PLACEMENT_3D ( 'NONE', #26, #99, #314 ) ;
#333 = CARTESIAN_POINT ( 'NONE',  ( 1.043952920314096810E-13, -3.661693929450586610E-15, 29.89999999999999858 ) ) ;
#334 = CARTESIAN_POINT ( 'NONE',  ( 0.0000000000000000000, 0.0000000000000000000, 0.0000000000000000000 ) ) ;
#335 = DIRECTION ( 'NONE',  ( 0.0000000000000000000, 1.000000000000000000, 0.0000000000000000000 ) ) ;
#336 = FACE_OUTER_BOUND ( 'NONE', #183, .T. ) ;
#337 = CIRCLE ( 'NONE', #255, 0.1250000000000000000 ) ;
ENDSEC;
END-ISO-10303-21;
