ISO-10303-21;
HEADER;
FILE_DESCRIPTION (( 'STEP AP203' ),
    '1' );
FILE_NAME ('953169.step',
    '2021-09-03T07:55:47',
    ( '' ),
    ( '' ),
    'SwSTEP 2.0',
    'SolidWorks 2019',
    '' );
FILE_SCHEMA (( 'CONFIG_CONTROL_DESIGN' ));
ENDSEC;

DATA;
#1 = ORIENTED_EDGE ( 'NONE', *, *, #64, .T. ) ;
#2 = DATE_TIME_ROLE ( 'classification_date' ) ;
#3 = VERTEX_POINT ( 'NONE', #24 ) ;
#4 = AXIS2_PLACEMENT_3D ( 'NONE', #297, #326, #122 ) ;
#5 = APPROVAL_DATE_TIME ( #194, #272 ) ;
#6 = ORIENTED_EDGE ( 'NONE', *, *, #115, .F. ) ;
#7 = ORIENTED_EDGE ( 'NONE', *, *, #193, .T. ) ;
#8 = ORIENTED_EDGE ( 'NONE', *, *, #86, .F. ) ;
#9 = LINE ( 'NONE', #199, #293 ) ;
#10 = ADVANCED_FACE ( 'NONE', ( #135 ), #233, .T. ) ;
#11 = CARTESIAN_POINT ( 'NONE',  ( 4.195787277160889587E-16, -1.471684067651587478E-17, 0.1201721238055111912 ) ) ;
#12 = CARTESIAN_POINT ( 'NONE',  ( 1.070872631637035300E-14, -0.1999999999999978184, 6.000000000000000000 ) ) ;
#13 = AXIS2_PLACEMENT_3D ( 'NONE', #311, #76, #228 ) ;
#14 = DIRECTION ( 'NONE',  ( 0.0000000000000000000, 1.000000000000000000, 0.0000000000000000000 ) ) ;
#15 = DIRECTION ( 'NONE',  ( 3.491481338843133355E-15, -1.224646799147353207E-16, 1.000000000000000000 ) ) ;
#16 = CARTESIAN_POINT ( 'NONE',  ( 2.094888803305880013E-14, -7.347880794884119736E-16, 6.000000000000000000 ) ) ;
#17 = CARTESIAN_POINT ( 'NONE',  ( 1.047444401652940007E-13, -3.673940397442059178E-15, 30.00000000000000000 ) ) ;
#18 = APPLICATION_CONTEXT ( 'configuration controlled 3d designs of mechanical parts and assemblies' ) ;
#19 = AXIS2_PLACEMENT_3D ( 'NONE', #16, #206, #253 ) ;
#20 = CARTESIAN_POINT ( 'NONE',  ( 2.449293598294658158E-17, -0.1999999999999967359, -2.449293598294674490E-17 ) ) ;
#21 = DIRECTION ( 'NONE',  ( 0.0000000000000000000, 1.000000000000000000, 0.0000000000000000000 ) ) ;
#22 = AXIS2_PLACEMENT_3D ( 'NONE', #11, #298, #173 ) ;
#23 = PERSON_AND_ORGANIZATION_ROLE ( 'design_owner' ) ;
#24 = CARTESIAN_POINT ( 'NONE',  ( 4.195787277160888600E-16, -0.1999999999999964029, 0.1201721238055111635 ) ) ;
#25 = EDGE_LOOP ( 'NONE', ( #190, #283, #258, #109 ) ) ;
#26 = PERSON_AND_ORGANIZATION ( #251, #48 ) ;
#27 = ORIENTED_EDGE ( 'NONE', *, *, #81, .F. ) ;
#28 = AXIS2_PLACEMENT_3D ( 'NONE', #44, #155, #249 ) ;
#29 = AXIS2_PLACEMENT_3D ( 'NONE', #189, #105, #106 ) ;
#30 = COORDINATED_UNIVERSAL_TIME_OFFSET ( 1, 0, .AHEAD. ) ;
#31 = ORIENTED_EDGE ( 'NONE', *, *, #150, .T. ) ;
#32 = PERSON_AND_ORGANIZATION ( #251, #48 ) ;
#33 = ORIENTED_EDGE ( 'NONE', *, *, #49, .F. ) ;
#34 = DIRECTION ( 'NONE',  ( 3.491481338843133355E-15, -1.224646799147353207E-16, 1.000000000000000000 ) ) ;
#35 = CLOSED_SHELL ( 'NONE', ( #91, #55, #70, #152, #118 ) ) ;
#36 = PRODUCT ( '953169', '953169', '', ( #53 ) ) ;
#37 = CC_DESIGN_APPROVAL ( #272, ( #87 ) ) ;
#38 = FACE_OUTER_BOUND ( 'NONE', #79, .T. ) ;
#39 = DIRECTION ( 'NONE',  ( 0.0000000000000000000, 1.000000000000000000, 0.0000000000000000000 ) ) ;
#40 = FACE_OUTER_BOUND ( 'NONE', #188, .T. ) ;
#41 = AXIS2_PLACEMENT_3D ( 'NONE', #179, #100, #50 ) ;
#42 = LINE ( 'NONE', #226, #145 ) ;
#43 = DIRECTION ( 'NONE',  ( 4.275831445896958607E-31, 1.000000000000000000, 1.224646799147353207E-16 ) ) ;
#44 = CARTESIAN_POINT ( 'NONE',  ( 1.047444401652940007E-13, 7.498798913308738091E-34, 30.00000000000000000 ) ) ;
#45 = DIRECTION ( 'NONE',  ( 0.0000000000000000000, 1.000000000000000000, 0.0000000000000000000 ) ) ;
#46 = VECTOR ( 'NONE', #72, 1000.000000000000114 ) ;
#47 = VECTOR ( 'NONE', #146, 999.9999999999998863 ) ;
#48 = ORGANIZATION ( 'UNSPECIFIED', 'UNSPECIFIED', '' ) ;
#49 = EDGE_CURVE ( 'NONE', #215, #289, #9, .T. ) ;
#50 = DIRECTION ( 'NONE',  ( 0.0000000000000000000, 1.000000000000000000, 0.0000000000000000000 ) ) ;
#51 = ORIENTED_EDGE ( 'NONE', *, *, #124, .F. ) ;
#52 = PRODUCT_DEFINITION_FORMATION_WITH_SPECIFIED_SOURCE ( 'ANY', '', #36, .NOT_KNOWN. ) ;
#53 = MECHANICAL_CONTEXT ( 'NONE', #18, 'mechanical' ) ;
#54 = EDGE_LOOP ( 'NONE', ( #57, #136, #217, #195 ) ) ;
#55 = ADVANCED_FACE ( 'NONE', ( #40 ), #158, .T. ) ;
#56 = PERSON_AND_ORGANIZATION_ROLE ( 'creator' ) ;
#57 = ORIENTED_EDGE ( 'NONE', *, *, #97, .T. ) ;
#58 = DATE_TIME_ROLE ( 'creation_date' ) ;
#59 = EDGE_LOOP ( 'NONE', ( #6, #234, #31, #166 ) ) ;
#60 = MANIFOLD_SOLID_BREP ( 'Corps-Déplacer/Copier1[2]', #35 ) ;
#61 = AXIS2_PLACEMENT_3D ( 'NONE', #273, #67, #198 ) ;
#62 = COORDINATED_UNIVERSAL_TIME_OFFSET ( 1, 0, .AHEAD. ) ;
#63 = ORIENTED_EDGE ( 'NONE', *, *, #150, .F. ) ;
#64 = EDGE_CURVE ( 'NONE', #142, #169, #42, .T. ) ;
#65 = CARTESIAN_POINT ( 'NONE',  ( 4.440716636990356727E-16, 0.1999999999999963474, 0.1201721238055112190 ) ) ;
#66 = CARTESIAN_POINT ( 'NONE',  ( 2.449293598294680345E-17, -0.1999999999999985401, -2.449293598294696985E-17 ) ) ;
#67 = DIRECTION ( 'NONE',  ( -3.491481338843133355E-15, 1.224646799147353207E-16, -1.000000000000000000 ) ) ;
#68 = DIRECTION ( 'NONE',  ( 4.275831445896958607E-31, 1.000000000000000000, 1.224646799147353207E-16 ) ) ;
#69 = CARTESIAN_POINT ( 'NONE',  ( 1.047444401652940007E-13, -3.673940397442059178E-15, 30.00000000000000000 ) ) ;
#70 = ADVANCED_FACE ( 'NONE', ( #148 ), #121, .T. ) ;
#71 = VECTOR ( 'NONE', #269, 1000.000000000000000 ) ;
#72 = DIRECTION ( 'NONE',  ( -2.468850131082257455E-15, 0.7071067811865497932, -0.7071067811865453523 ) ) ;
#73 = DIRECTION ( 'NONE',  ( -3.491481338843133355E-15, 1.224646799147353207E-16, -1.000000000000000000 ) ) ;
#74 = CC_DESIGN_DATE_AND_TIME_ASSIGNMENT ( #266, #2, ( #87 ) ) ;
#75 = CIRCLE ( 'NONE', #245, 0.2000000000000000111 ) ;
#76 = DIRECTION ( 'NONE',  ( -3.491481338843133355E-15, 1.224646799147353207E-16, -1.000000000000000000 ) ) ;
#77 = DATE_AND_TIME ( #163, #257 ) ;
#78 = CALENDAR_DATE ( 2021, 3, 9 ) ;
#79 = EDGE_LOOP ( 'NONE', ( #114, #319 ) ) ;
#80 = AXIS2_PLACEMENT_3D ( 'NONE', #242, #15, #296 ) ;
#81 = EDGE_CURVE ( 'NONE', #239, #169, #328, .T. ) ;
#82 = VERTEX_POINT ( 'NONE', #12 ) ;
#83 = APPLICATION_PROTOCOL_DEFINITION ( 'international standard', 'config_control_design', 1994, #263 ) ;
#84 = ORIENTED_EDGE ( 'NONE', *, *, #284, .F. ) ;
#85 = APPROVAL_STATUS ( 'not_yet_approved' ) ;
#86 = EDGE_CURVE ( 'NONE', #289, #262, #75, .T. ) ;
#87 = SECURITY_CLASSIFICATION ( '', '', #111 ) ;
#88 = DIRECTION ( 'NONE',  ( -2.382254525458708792E-15, -0.7071067811865495711, -0.7071067811865455743 ) ) ;
#89 = DIRECTION ( 'NONE',  ( -3.491481338843133355E-15, 1.224646799147353207E-16, -1.000000000000000000 ) ) ;
#90 = PRODUCT_DEFINITION_SHAPE ( 'NONE', 'NONE',  #147 ) ;
#91 = ADVANCED_FACE ( 'NONE', ( #220 ), #171, .T. ) ;
#92 = CARTESIAN_POINT ( 'NONE',  ( 2.094888803305880013E-14, 0.1999999999999963474, 6.000000000000000000 ) ) ;
#93 = AXIS2_PLACEMENT_3D ( 'NONE', #102, #73, #178 ) ;
#94 = CC_DESIGN_SECURITY_CLASSIFICATION ( #87, ( #52 ) ) ;
#95 = DIRECTION ( 'NONE',  ( -3.491481338843133355E-15, 1.224646799147353207E-16, -1.000000000000000000 ) ) ;
#96 = DIRECTION ( 'NONE',  ( -3.491481338843133355E-15, 1.224646799147353207E-16, -1.000000000000000000 ) ) ;
#97 = EDGE_CURVE ( 'NONE', #267, #215, #139, .T. ) ;
#98 =( NAMED_UNIT ( * ) SI_UNIT ( $, .STERADIAN. ) SOLID_ANGLE_UNIT ( ) );
#99 = AXIS2_PLACEMENT_3D ( 'NONE', #128, #157, #231 ) ;
#100 = DIRECTION ( 'NONE',  ( -3.491481338843133355E-15, 1.224646799147353207E-16, -1.000000000000000000 ) ) ;
#101 = CARTESIAN_POINT ( 'NONE',  ( 0.0000000000000000000, 0.0000000000000000000, 0.0000000000000000000 ) ) ;
#102 = CARTESIAN_POINT ( 'NONE',  ( 2.094888803305880013E-14, -7.347880794884119736E-16, 6.000000000000000000 ) ) ;
#103 = LOCAL_TIME ( 9, 55, 47.00000000000000000, #337 ) ;
#104 = ADVANCED_FACE ( 'NONE', ( #247 ), #271, .F. ) ;
#105 = DIRECTION ( 'NONE',  ( 0.0000000000000000000, 0.0000000000000000000, 1.000000000000000000 ) ) ;
#106 = DIRECTION ( 'NONE',  ( 1.000000000000000000, 0.0000000000000000000, 0.0000000000000000000 ) ) ;
#107 = EDGE_LOOP ( 'NONE', ( #27, #184, #112 ) ) ;
#108 = CC_DESIGN_PERSON_AND_ORGANIZATION_ASSIGNMENT ( #32, #56, ( #52 ) ) ;
#109 = ORIENTED_EDGE ( 'NONE', *, *, #64, .F. ) ;
#110 = AXIS2_PLACEMENT_3D ( 'NONE', #243, #89, #14 ) ;
#111 = SECURITY_CLASSIFICATION_LEVEL ( 'unclassified' ) ;
#112 = ORIENTED_EDGE ( 'NONE', *, *, #281, .T. ) ;
#113 = PERSON_AND_ORGANIZATION ( #251, #48 ) ;
#114 = ORIENTED_EDGE ( 'NONE', *, *, #295, .F. ) ;
#115 = EDGE_CURVE ( 'NONE', #289, #159, #203, .T. ) ;
#116 = LOCAL_TIME ( 9, 55, 47.00000000000000000, #313 ) ;
#117 = DIRECTION ( 'NONE',  ( -3.491481338843133355E-15, 1.224646799147353207E-16, -1.000000000000000000 ) ) ;
#118 = ADVANCED_FACE ( 'NONE', ( #38 ), #120, .T. ) ;
#119 = DIRECTION ( 'NONE',  ( -3.491481338843133355E-15, 1.224646799147353207E-16, -1.000000000000000000 ) ) ;
#120 = PLANE ( 'NONE',  #80 ) ;
#121 = CONICAL_SURFACE ( 'NONE', #151, 0.1999999999999963751, 1.029744258676649649 ) ;
#122 = DIRECTION ( 'NONE',  ( -4.275831445896958607E-31, -1.000000000000000000, -1.224646799147353207E-16 ) ) ;
#123 = FACE_OUTER_BOUND ( 'NONE', #213, .T. ) ;
#124 = EDGE_CURVE ( 'NONE', #239, #3, #221, .T. ) ;
#125 = FACE_OUTER_BOUND ( 'NONE', #54, .T. ) ;
#126 = CC_DESIGN_PERSON_AND_ORGANIZATION_ASSIGNMENT ( #26, #212, ( #52 ) ) ;
#127 = CIRCLE ( 'NONE', #321, 0.1000000000000000194 ) ;
#128 = CARTESIAN_POINT ( 'NONE',  ( 4.195787277160889587E-16, -1.471684067651587478E-17, 0.1201721238055111912 ) ) ;
#129 = PLANE ( 'NONE',  #28 ) ;
#130 = CARTESIAN_POINT ( 'NONE',  ( 1.047444401652940007E-13, 0.09999999999999634182, 30.00000000000000000 ) ) ;
#131 = EDGE_CURVE ( 'NONE', #215, #267, #127, .T. ) ;
#132 = CC_DESIGN_PERSON_AND_ORGANIZATION_ASSIGNMENT ( #183, #290, ( #147 ) ) ;
#133 = CIRCLE ( 'NONE', #93, 0.1999999999999970690 ) ;
#134 = APPROVAL_ROLE ( '' ) ;
#135 = FACE_OUTER_BOUND ( 'NONE', #214, .T. ) ;
#136 = ORIENTED_EDGE ( 'NONE', *, *, #49, .T. ) ;
#137 = PERSON_AND_ORGANIZATION ( #251, #48 ) ;
#138 = ORIENTED_EDGE ( 'NONE', *, *, #131, .F. ) ;
#139 = CIRCLE ( 'NONE', #110, 0.1000000000000000194 ) ;
#140 = APPROVAL_ROLE ( '' ) ;
#141 = ORIENTED_EDGE ( 'NONE', *, *, #97, .F. ) ;
#142 = VERTEX_POINT ( 'NONE', #92 ) ;
#143 = APPROVAL ( #85, 'UNSPECIFIED' ) ;
#144 = CARTESIAN_POINT ( 'NONE',  ( 0.0000000000000000000, 0.0000000000000000000, 0.0000000000000000000 ) ) ;
#145 = VECTOR ( 'NONE', #323, 1000.000000000000000 ) ;
#146 = DIRECTION ( 'NONE',  ( 1.903218546456022717E-15, 0.8571673007021097801, 0.5150380749100585964 ) ) ;
#147 = PRODUCT_DEFINITION ( 'UNKNOWN', '', #52, #308 ) ;
#148 = FACE_OUTER_BOUND ( 'NONE', #107, .T. ) ;
#149 = DIRECTION ( 'NONE',  ( -4.814824860968177214E-31, -1.000000000000000000, -1.355252715606905194E-16 ) ) ;
#150 = EDGE_CURVE ( 'NONE', #262, #317, #222, .T. ) ;
#151 = AXIS2_PLACEMENT_3D ( 'NONE', #197, #34, #149 ) ;
#152 = ADVANCED_FACE ( 'NONE', ( #123 ), #202, .T. ) ;
#153 = DIRECTION ( 'NONE',  ( 0.0000000000000000000, 1.000000000000000000, 0.0000000000000000000 ) ) ;
#154 = DIRECTION ( 'NONE',  ( -3.491481338843133355E-15, 1.224646799147353207E-16, -1.000000000000000000 ) ) ;
#155 = DIRECTION ( 'NONE',  ( -3.491481338843133355E-15, 1.224646799147353207E-16, -1.000000000000000000 ) ) ;
#156 = CARTESIAN_POINT ( 'NONE',  ( 1.045882358003390536E-13, -0.1000000000000036970, 30.00000000000000000 ) ) ;
#157 = DIRECTION ( 'NONE',  ( -3.491481338843133355E-15, 1.224646799147353207E-16, -1.000000000000000000 ) ) ;
#158 = CONICAL_SURFACE ( 'NONE', #22, 0.1999999999999963751, 1.029744258676649649 ) ;
#159 = VERTEX_POINT ( 'NONE', #301 ) ;
#160 = CC_DESIGN_APPROVAL ( #325, ( #52 ) ) ;
#161 = PERSON_AND_ORGANIZATION ( #251, #48 ) ;
#162 = ORIENTED_EDGE ( 'NONE', *, *, #131, .T. ) ;
#163 = CALENDAR_DATE ( 2021, 3, 9 ) ;
#164 = ORIENTED_EDGE ( 'NONE', *, *, #327, .T. ) ;
#165 = APPROVAL_DATE_TIME ( #211, #143 ) ;
#166 = ORIENTED_EDGE ( 'NONE', *, *, #193, .F. ) ;
#167 = CIRCLE ( 'NONE', #13, 0.1999999999999970690 ) ;
#168 = APPROVAL_ROLE ( '' ) ;
#169 = VERTEX_POINT ( 'NONE', #65 ) ;
#170 = LINE ( 'NONE', #241, #46 ) ;
#171 = CYLINDRICAL_SURFACE ( 'NONE', #331, 0.1999999999999967359 ) ;
#172 =( GEOMETRIC_REPRESENTATION_CONTEXT ( 3 ) GLOBAL_UNCERTAINTY_ASSIGNED_CONTEXT ( ( #333 ) ) GLOBAL_UNIT_ASSIGNED_CONTEXT ( ( #230, #329, #98 ) ) REPRESENTATION_CONTEXT ( 'NONE', 'WORKASPACE' ) );
#173 = DIRECTION ( 'NONE',  ( -4.814824860968177214E-31, -1.000000000000000000, -1.355252715606905194E-16 ) ) ;
#174 = EDGE_CURVE ( 'NONE', #267, #262, #170, .T. ) ;
#175 = DIRECTION ( 'NONE',  ( 4.275831445896958607E-31, 1.000000000000000000, 1.224646799147353207E-16 ) ) ;
#176 = CARTESIAN_POINT ( 'NONE',  ( 4.195787277160888600E-16, -0.1999999999999964029, 0.1201721238055111635 ) ) ;
#177 = DIRECTION ( 'NONE',  ( -3.491481338843133355E-15, 1.224646799147353207E-16, -1.000000000000000000 ) ) ;
#178 = DIRECTION ( 'NONE',  ( 0.0000000000000000000, 1.000000000000000000, 0.0000000000000000000 ) ) ;
#179 = CARTESIAN_POINT ( 'NONE',  ( 1.043952920314096810E-13, -3.661693929450586610E-15, 29.89999999999999858 ) ) ;
#180 = PRODUCT_RELATED_PRODUCT_CATEGORY ( 'detail', '', ( #36 ) ) ;
#181 = DIRECTION ( 'NONE',  ( -3.491481338843133355E-15, 1.224646799147353207E-16, -1.000000000000000000 ) ) ;
#182 = CARTESIAN_POINT ( 'NONE',  ( 6.269658296821657040E-14, -0.2000000000000036748, 29.89999999999999858 ) ) ;
#183 = PERSON_AND_ORGANIZATION ( #251, #48 ) ;
#184 = ORIENTED_EDGE ( 'NONE', *, *, #124, .T. ) ;
#185 = COORDINATED_UNIVERSAL_TIME_OFFSET ( 1, 0, .AHEAD. ) ;
#186 = EDGE_CURVE ( 'NONE', #82, #142, #236, .T. ) ;
#187 = CONICAL_SURFACE ( 'NONE', #223, 0.1000000000000000194, 0.7853981633974512766 ) ;
#188 = EDGE_LOOP ( 'NONE', ( #51, #192, #292 ) ) ;
#189 = CARTESIAN_POINT ( 'NONE',  ( 0.0000000000000000000, 0.0000000000000000000, 0.0000000000000000000 ) ) ;
#190 = ORIENTED_EDGE ( 'NONE', *, *, #295, .T. ) ;
#191 = PERSON_AND_ORGANIZATION_ROLE ( 'classification_officer' ) ;
#192 = ORIENTED_EDGE ( 'NONE', *, *, #81, .T. ) ;
#193 = EDGE_CURVE ( 'NONE', #159, #317, #133, .T. ) ;
#194 = DATE_AND_TIME ( #238, #103 ) ;
#195 = ORIENTED_EDGE ( 'NONE', *, *, #174, .F. ) ;
#196 = CIRCLE ( 'NONE', #99, 0.1999999999999963751 ) ;
#197 = CARTESIAN_POINT ( 'NONE',  ( 4.195787277160889587E-16, -1.471684067651587478E-17, 0.1201721238055111912 ) ) ;
#198 = DIRECTION ( 'NONE',  ( 4.275831445896958607E-31, 1.000000000000000000, 1.224646799147353207E-16 ) ) ;
#199 = CARTESIAN_POINT ( 'NONE',  ( 1.047566866332854716E-13, -0.1000000000000036970, 30.00000000000000000 ) ) ;
#200 = AXIS2_PLACEMENT_3D ( 'NONE', #300, #96, #175 ) ;
#201 = VECTOR ( 'NONE', #95, 1000.000000000000000 ) ;
#202 = CYLINDRICAL_SURFACE ( 'NONE', #200, 0.1999999999999967359 ) ;
#203 = LINE ( 'NONE', #66, #71 ) ;
#204 = ADVANCED_FACE ( 'NONE', ( #276 ), #305, .T. ) ;
#205 = EDGE_CURVE ( 'NONE', #169, #3, #218, .T. ) ;
#206 = DIRECTION ( 'NONE',  ( -3.491481338843133355E-15, 1.224646799147353207E-16, -1.000000000000000000 ) ) ;
#207 = CC_DESIGN_PERSON_AND_ORGANIZATION_ASSIGNMENT ( #161, #191, ( #87 ) ) ;
#208 = AXIS2_PLACEMENT_3D ( 'NONE', #330, #334, #280 ) ;
#209 = EDGE_CURVE ( 'NONE', #82, #3, #210, .T. ) ;
#210 = LINE ( 'NONE', #20, #336 ) ;
#211 = DATE_AND_TIME ( #264, #294 ) ;
#212 = PERSON_AND_ORGANIZATION_ROLE ( 'design_supplier' ) ;
#213 = EDGE_LOOP ( 'NONE', ( #322, #291, #1, #216 ) ) ;
#214 = EDGE_LOOP ( 'NONE', ( #164, #260, #84, #63 ) ) ;
#215 = VERTEX_POINT ( 'NONE', #156 ) ;
#216 = ORIENTED_EDGE ( 'NONE', *, *, #281, .F. ) ;
#217 = ORIENTED_EDGE ( 'NONE', *, *, #327, .F. ) ;
#218 = CIRCLE ( 'NONE', #309, 0.1999999999999963751 ) ;
#219 = APPROVAL_PERSON_ORGANIZATION ( #318, #325, #168 ) ;
#220 = FACE_OUTER_BOUND ( 'NONE', #25, .T. ) ;
#221 = LINE ( 'NONE', #176, #299 ) ;
#222 = LINE ( 'NONE', #274, #201 ) ;
#223 = AXIS2_PLACEMENT_3D ( 'NONE', #17, #154, #21 ) ;
#224 = DIRECTION ( 'NONE',  ( -3.491481338843133355E-15, 1.224646799147353207E-16, -1.000000000000000000 ) ) ;
#225 = ADVANCED_FACE ( 'NONE', ( #125 ), #270, .T. ) ;
#226 = CARTESIAN_POINT ( 'NONE',  ( 8.551662891793777302E-32, 0.1999999999999967359, 2.449293598294666478E-17 ) ) ;
#227 = CARTESIAN_POINT ( 'NONE',  ( 1.043952920314096810E-13, 0.1999999999999963474, 29.89999999999999858 ) ) ;
#228 = DIRECTION ( 'NONE',  ( 0.0000000000000000000, 1.000000000000000000, 0.0000000000000000000 ) ) ;
#229 = ADVANCED_FACE ( 'NONE', ( #252 ), #129, .F. ) ;
#230 =( LENGTH_UNIT ( ) NAMED_UNIT ( * ) SI_UNIT ( .MILLI., .METRE. ) );
#231 = DIRECTION ( 'NONE',  ( 4.814824860968177214E-31, 1.000000000000000000, 1.355252715606905194E-16 ) ) ;
#232 = APPROVAL_STATUS ( 'not_yet_approved' ) ;
#233 = CYLINDRICAL_SURFACE ( 'NONE', #61, 0.1999999999999985401 ) ;
#234 = ORIENTED_EDGE ( 'NONE', *, *, #86, .T. ) ;
#235 = PERSON_AND_ORGANIZATION ( #251, #48 ) ;
#236 = CIRCLE ( 'NONE', #19, 0.1999999999999970690 ) ;
#237 = EDGE_LOOP ( 'NONE', ( #33, #162, #314, #8 ) ) ;
#238 = CALENDAR_DATE ( 2021, 3, 9 ) ;
#239 = VERTEX_POINT ( 'NONE', #101 ) ;
#240 = EDGE_LOOP ( 'NONE', ( #141, #138 ) ) ;
#241 = CARTESIAN_POINT ( 'NONE',  ( 1.047444401652940007E-13, 0.09999999999999634182, 30.00000000000000000 ) ) ;
#242 = CARTESIAN_POINT ( 'NONE',  ( 2.094888803305880013E-14, 1.499759782661824765E-33, 6.000000000000000000 ) ) ;
#243 = CARTESIAN_POINT ( 'NONE',  ( 1.047444401652940007E-13, -3.673940397442059178E-15, 30.00000000000000000 ) ) ;
#244 = CARTESIAN_POINT ( 'NONE',  ( 1.043952920314096810E-13, -3.661693929450586610E-15, 29.89999999999999858 ) ) ;
#245 = AXIS2_PLACEMENT_3D ( 'NONE', #244, #117, #153 ) ;
#246 = LOCAL_TIME ( 9, 55, 47.00000000000000000, #30 ) ;
#247 = FACE_OUTER_BOUND ( 'NONE', #320, .T. ) ;
#248 = CARTESIAN_POINT ( 'NONE',  ( 4.195787277160889587E-16, -1.471684067651587478E-17, 0.1201721238055111912 ) ) ;
#249 = DIRECTION ( 'NONE',  ( 4.275831445896958607E-31, 1.000000000000000000, 1.224646799147353207E-16 ) ) ;
#250 = CIRCLE ( 'NONE', #208, 0.1999999999999970690 ) ;
#251 = PERSON ( 'UNSPECIFIED', 'UNSPECIFIED', 'UNSPECIFIED', ('UNSPECIFIED'), ('UNSPECIFIED'), ('UNSPECIFIED') ) ;
#252 = FACE_OUTER_BOUND ( 'NONE', #240, .T. ) ;
#253 = DIRECTION ( 'NONE',  ( 0.0000000000000000000, 1.000000000000000000, 0.0000000000000000000 ) ) ;
#254 = DIRECTION ( 'NONE',  ( 4.814824860968177214E-31, 1.000000000000000000, 1.355252715606905194E-16 ) ) ;
#255 = ADVANCED_FACE ( 'NONE', ( #307 ), #187, .T. ) ;
#256 = AXIS2_PLACEMENT_3D ( 'NONE', #279, #177, #45 ) ;
#257 = LOCAL_TIME ( 9, 55, 47.00000000000000000, #185 ) ;
#258 = ORIENTED_EDGE ( 'NONE', *, *, #205, .F. ) ;
#259 = CALENDAR_DATE ( 2021, 3, 9 ) ;
#260 = ORIENTED_EDGE ( 'NONE', *, *, #115, .T. ) ;
#261 = CC_DESIGN_DATE_AND_TIME_ASSIGNMENT ( #316, #58, ( #147 ) ) ;
#262 = VERTEX_POINT ( 'NONE', #227 ) ;
#263 = APPLICATION_CONTEXT ( 'configuration controlled 3d designs of mechanical parts and assemblies' ) ;
#264 = CALENDAR_DATE ( 2021, 3, 9 ) ;
#265 = ORIENTED_EDGE ( 'NONE', *, *, #284, .T. ) ;
#266 = DATE_AND_TIME ( #259, #246 ) ;
#267 = VERTEX_POINT ( 'NONE', #130 ) ;
#268 = CARTESIAN_POINT ( 'NONE',  ( 4.440716636990356727E-16, 0.1999999999999963474, 0.1201721238055112190 ) ) ;
#269 = DIRECTION ( 'NONE',  ( -3.491481338843133355E-15, 1.224646799147353207E-16, -1.000000000000000000 ) ) ;
#270 = CONICAL_SURFACE ( 'NONE', #256, 0.1000000000000000194, 0.7853981633974512766 ) ;
#271 = PLANE ( 'NONE',  #4 ) ;
#272 = APPROVAL ( #232, 'UNSPECIFIED' ) ;
#273 = CARTESIAN_POINT ( 'NONE',  ( 0.0000000000000000000, 0.0000000000000000000, 0.0000000000000000000 ) ) ;
#274 = CARTESIAN_POINT ( 'NONE',  ( 8.551662891793855030E-32, 0.1999999999999985401, 2.449293598294688357E-17 ) ) ;
#275 = APPROVAL_PERSON_ORGANIZATION ( #235, #272, #134 ) ;
#276 = FACE_OUTER_BOUND ( 'NONE', #59, .T. ) ;
#277 = MANIFOLD_SOLID_BREP ( 'Corps-Déplacer/Copier1[1]', #303 ) ;
#278 = DIRECTION ( 'NONE',  ( -3.491481338843133355E-15, 1.224646799147353207E-16, -1.000000000000000000 ) ) ;
#279 = CARTESIAN_POINT ( 'NONE',  ( 1.047444401652940007E-13, -3.673940397442059178E-15, 30.00000000000000000 ) ) ;
#280 = DIRECTION ( 'NONE',  ( 0.0000000000000000000, 1.000000000000000000, 0.0000000000000000000 ) ) ;
#281 = EDGE_CURVE ( 'NONE', #3, #169, #196, .T. ) ;
#282 = SHAPE_DEFINITION_REPRESENTATION ( #90, #288 ) ;
#283 = ORIENTED_EDGE ( 'NONE', *, *, #209, .T. ) ;
#284 = EDGE_CURVE ( 'NONE', #317, #159, #167, .T. ) ;
#285 = CIRCLE ( 'NONE', #41, 0.2000000000000000111 ) ;
#286 = APPROVAL_PERSON_ORGANIZATION ( #113, #143, #140 ) ;
#287 = APPROVAL_DATE_TIME ( #77, #325 ) ;
#288 = ADVANCED_BREP_SHAPE_REPRESENTATION ( '953169', ( #277, #60, #29 ), #172 ) ;
#289 = VERTEX_POINT ( 'NONE', #182 ) ;
#290 = PERSON_AND_ORGANIZATION_ROLE ( 'creator' ) ;
#291 = ORIENTED_EDGE ( 'NONE', *, *, #186, .T. ) ;
#292 = ORIENTED_EDGE ( 'NONE', *, *, #205, .T. ) ;
#293 = VECTOR ( 'NONE', #88, 1000.000000000000114 ) ;
#294 = LOCAL_TIME ( 9, 55, 47.00000000000000000, #62 ) ;
#295 = EDGE_CURVE ( 'NONE', #142, #82, #250, .T. ) ;
#296 = DIRECTION ( 'NONE',  ( -4.275831445896958607E-31, -1.000000000000000000, -1.224646799147353207E-16 ) ) ;
#297 = CARTESIAN_POINT ( 'NONE',  ( 2.094888803305880013E-14, 1.499759782661824765E-33, 6.000000000000000000 ) ) ;
#298 = DIRECTION ( 'NONE',  ( 3.491481338843133355E-15, -1.224646799147353207E-16, 1.000000000000000000 ) ) ;
#299 = VECTOR ( 'NONE', #324, 1000.000000000000000 ) ;
#300 = CARTESIAN_POINT ( 'NONE',  ( 0.0000000000000000000, 0.0000000000000000000, 0.0000000000000000000 ) ) ;
#301 = CARTESIAN_POINT ( 'NONE',  ( 6.269658296821703740E-14, -0.1999999999999978184, 6.000000000000000000 ) ) ;
#302 = APPLICATION_PROTOCOL_DEFINITION ( 'international standard', 'config_control_design', 1994, #18 ) ;
#303 = CLOSED_SHELL ( 'NONE', ( #225, #10, #104, #204, #255, #229 ) ) ;
#304 = CC_DESIGN_APPROVAL ( #143, ( #147 ) ) ;
#305 = CYLINDRICAL_SURFACE ( 'NONE', #315, 0.1999999999999985401 ) ;
#306 = CARTESIAN_POINT ( 'NONE',  ( 0.0000000000000000000, 0.0000000000000000000, 0.0000000000000000000 ) ) ;
#307 = FACE_OUTER_BOUND ( 'NONE', #237, .T. ) ;
#308 = DESIGN_CONTEXT ( 'detailed design', #263, 'design' ) ;
#309 = AXIS2_PLACEMENT_3D ( 'NONE', #248, #335, #254 ) ;
#310 = CC_DESIGN_PERSON_AND_ORGANIZATION_ASSIGNMENT ( #137, #23, ( #36 ) ) ;
#311 = CARTESIAN_POINT ( 'NONE',  ( 2.094888803305880013E-14, -7.347880794884119736E-16, 6.000000000000000000 ) ) ;
#312 = APPROVAL_STATUS ( 'not_yet_approved' ) ;
#313 = COORDINATED_UNIVERSAL_TIME_OFFSET ( 1, 0, .AHEAD. ) ;
#314 = ORIENTED_EDGE ( 'NONE', *, *, #174, .T. ) ;
#315 = AXIS2_PLACEMENT_3D ( 'NONE', #306, #278, #43 ) ;
#316 = DATE_AND_TIME ( #78, #116 ) ;
#317 = VERTEX_POINT ( 'NONE', #332 ) ;
#318 = PERSON_AND_ORGANIZATION ( #251, #48 ) ;
#319 = ORIENTED_EDGE ( 'NONE', *, *, #186, .F. ) ;
#320 = EDGE_LOOP ( 'NONE', ( #265, #7 ) ) ;
#321 = AXIS2_PLACEMENT_3D ( 'NONE', #69, #224, #39 ) ;
#322 = ORIENTED_EDGE ( 'NONE', *, *, #209, .F. ) ;
#323 = DIRECTION ( 'NONE',  ( -3.491481338843133355E-15, 1.224646799147353207E-16, -1.000000000000000000 ) ) ;
#324 = DIRECTION ( 'NONE',  ( 1.798245827342160317E-15, -0.8571673007021098911, 0.5150380749100582634 ) ) ;
#325 = APPROVAL ( #312, 'UNSPECIFIED' ) ;
#326 = DIRECTION ( 'NONE',  ( 3.491481338843133355E-15, -1.224646799147353207E-16, 1.000000000000000000 ) ) ;
#327 = EDGE_CURVE ( 'NONE', #262, #289, #285, .T. ) ;
#328 = LINE ( 'NONE', #268, #47 ) ;
#329 =( NAMED_UNIT ( * ) PLANE_ANGLE_UNIT ( ) SI_UNIT ( $, .RADIAN. ) );
#330 = CARTESIAN_POINT ( 'NONE',  ( 2.094888803305880013E-14, -7.347880794884119736E-16, 6.000000000000000000 ) ) ;
#331 = AXIS2_PLACEMENT_3D ( 'NONE', #144, #119, #68 ) ;
#332 = CARTESIAN_POINT ( 'NONE',  ( 2.094888803305880013E-14, 0.1999999999999963474, 6.000000000000000000 ) ) ;
#333 = UNCERTAINTY_MEASURE_WITH_UNIT (LENGTH_MEASURE( 1.000000000000000082E-05 ), #230, 'distance_accuracy_value', 'NONE');
#334 = DIRECTION ( 'NONE',  ( -3.491481338843133355E-15, 1.224646799147353207E-16, -1.000000000000000000 ) ) ;
#335 = DIRECTION ( 'NONE',  ( -3.491481338843133355E-15, 1.224646799147353207E-16, -1.000000000000000000 ) ) ;
#336 = VECTOR ( 'NONE', #181, 1000.000000000000000 ) ;
#337 = COORDINATED_UNIVERSAL_TIME_OFFSET ( 1, 0, .AHEAD. ) ;
ENDSEC;
END-ISO-10303-21;
