ISO-10303-21;
HEADER;
FILE_DESCRIPTION (( 'STEP AP203' ),
    '1' );
FILE_NAME ('953167.step',
    '2021-09-03T07:55:42',
    ( '' ),
    ( '' ),
    'SwSTEP 2.0',
    'SolidWorks 2019',
    '' );
FILE_SCHEMA (( 'CONFIG_CONTROL_DESIGN' ));
ENDSEC;

DATA;
#1 = PRODUCT ( '953167', '953167', '', ( #235 ) ) ;
#2 = DIRECTION ( 'NONE',  ( 4.275831445896958607E-31, 1.000000000000000000, 1.224646799147353207E-16 ) ) ;
#3 = CIRCLE ( 'NONE', #141, 0.1749999999999969635 ) ;
#4 = DATE_AND_TIME ( #267, #101 ) ;
#5 = VECTOR ( 'NONE', #179, 1000.000000000000114 ) ;
#6 = CARTESIAN_POINT ( 'NONE',  ( 3.671313867515769021E-16, -1.287723559195135422E-17, 0.1051506083298220234 ) ) ;
#7 = PRODUCT_DEFINITION_SHAPE ( 'NONE', 'NONE',  #11 ) ;
#8 = FACE_OUTER_BOUND ( 'NONE', #192, .T. ) ;
#9 = VERTEX_POINT ( 'NONE', #40 ) ;
#10 = CC_DESIGN_APPROVAL ( #99, ( #195 ) ) ;
#11 = PRODUCT_DEFINITION ( 'UNKNOWN', '', #195, #37 ) ;
#12 = PERSON_AND_ORGANIZATION ( #93, #220 ) ;
#13 = PRODUCT_RELATED_PRODUCT_CATEGORY ( 'detail', '', ( #1 ) ) ;
#14 = CIRCLE ( 'NONE', #128, 0.1749999999999969635 ) ;
#15 = CARTESIAN_POINT ( 'NONE',  ( 3.671313867515768034E-16, -0.1749999999999963252, 0.1051506083298219957 ) ) ;
#16 = EDGE_CURVE ( 'NONE', #299, #123, #77, .T. ) ;
#17 = DIRECTION ( 'NONE',  ( -3.491481338843133355E-15, 1.224646799147353207E-16, -1.000000000000000000 ) ) ;
#18 = APPLICATION_CONTEXT ( 'configuration controlled 3d designs of mechanical parts and assemblies' ) ;
#19 = VERTEX_POINT ( 'NONE', #234 ) ;
#20 = CARTESIAN_POINT ( 'NONE',  ( 1.745740669421566993E-14, -6.123233995736767268E-16, 5.000000000000000888 ) ) ;
#21 = FACE_OUTER_BOUND ( 'NONE', #194, .T. ) ;
#22 = VECTOR ( 'NONE', #236, 1000.000000000000000 ) ;
#23 = VECTOR ( 'NONE', #154, 1000.000000000000000 ) ;
#24 = CARTESIAN_POINT ( 'NONE',  ( 1.047444401652940007E-13, -3.673940397442059178E-15, 30.00000000000000000 ) ) ;
#25 = ORIENTED_EDGE ( 'NONE', *, *, #231, .F. ) ;
#26 = COORDINATED_UNIVERSAL_TIME_OFFSET ( 1, 0, .AHEAD. ) ;
#27 = CONICAL_SURFACE ( 'NONE', #244, 0.07500000000000001110, 0.7853981633974512766 ) ;
#28 = CALENDAR_DATE ( 2021, 3, 9 ) ;
#29 = ADVANCED_FACE ( 'NONE', ( #63 ), #147, .T. ) ;
#30 = COORDINATED_UNIVERSAL_TIME_OFFSET ( 1, 0, .AHEAD. ) ;
#31 = EDGE_LOOP ( 'NONE', ( #96, #138, #252, #325 ) ) ;
#32 = CARTESIAN_POINT ( 'NONE',  ( 2.143131898507842105E-17, -0.1749999999999984901, -2.143131898507856896E-17 ) ) ;
#33 = APPROVAL_STATUS ( 'not_yet_approved' ) ;
#34 = ORIENTED_EDGE ( 'NONE', *, *, #243, .F. ) ;
#35 = VECTOR ( 'NONE', #281, 1000.000000000000000 ) ;
#36 = LINE ( 'NONE', #66, #22 ) ;
#37 = DESIGN_CONTEXT ( 'detailed design', #122, 'design' ) ;
#38 = DIRECTION ( 'NONE',  ( -3.491481338843133355E-15, 1.224646799147353207E-16, -1.000000000000000000 ) ) ;
#39 = EDGE_CURVE ( 'NONE', #130, #328, #143, .T. ) ;
#40 = CARTESIAN_POINT ( 'NONE',  ( 1.745740669421566993E-14, 0.1749999999999963252, 5.000000000000000888 ) ) ;
#41 = FACE_OUTER_BOUND ( 'NONE', #109, .T. ) ;
#42 = MANIFOLD_SOLID_BREP ( 'Corps-Déplacer/Copier1[1]', #334 ) ;
#43 = CYLINDRICAL_SURFACE ( 'NONE', #261, 0.1749999999999966582 ) ;
#44 = EDGE_CURVE ( 'NONE', #184, #328, #126, .T. ) ;
#45 = DIRECTION ( 'NONE',  ( -3.491481338843133355E-15, 1.224646799147353207E-16, -1.000000000000000000 ) ) ;
#46 = ORIENTED_EDGE ( 'NONE', *, *, #200, .F. ) ;
#47 = LOCAL_TIME ( 9, 55, 42.00000000000000000, #30 ) ;
#48 = MANIFOLD_SOLID_BREP ( 'Corps-Déplacer/Copier1[2]', #308 ) ;
#49 = DIRECTION ( 'NONE',  ( 0.0000000000000000000, 1.000000000000000000, 0.0000000000000000000 ) ) ;
#50 = AXIS2_PLACEMENT_3D ( 'NONE', #88, #196, #94 ) ;
#51 = AXIS2_PLACEMENT_3D ( 'NONE', #160, #283, #178 ) ;
#52 = APPROVAL ( #245, 'UNSPECIFIED' ) ;
#53 = DIRECTION ( 'NONE',  ( 3.491481338843133355E-15, -1.224646799147353207E-16, 1.000000000000000000 ) ) ;
#54 =( LENGTH_UNIT ( ) NAMED_UNIT ( * ) SI_UNIT ( .MILLI., .METRE. ) );
#55 = EDGE_CURVE ( 'NONE', #277, #298, #135, .T. ) ;
#56 = VERTEX_POINT ( 'NONE', #337 ) ;
#57 = PERSON_AND_ORGANIZATION_ROLE ( 'creator' ) ;
#58 = UNCERTAINTY_MEASURE_WITH_UNIT (LENGTH_MEASURE( 1.000000000000000082E-05 ), #54, 'distance_accuracy_value', 'NONE');
#59 = DIRECTION ( 'NONE',  ( 5.502656983963646991E-31, 1.000000000000000000, 1.548860246407896123E-16 ) ) ;
#60 = PERSON_AND_ORGANIZATION_ROLE ( 'creator' ) ;
#61 = DIRECTION ( 'NONE',  ( -3.491481338843133355E-15, 1.224646799147353207E-16, -1.000000000000000000 ) ) ;
#62 = SHAPE_DEFINITION_REPRESENTATION ( #7, #201 ) ;
#63 = FACE_OUTER_BOUND ( 'NONE', #70, .T. ) ;
#64 = LINE ( 'NONE', #32, #253 ) ;
#65 = ADVANCED_FACE ( 'NONE', ( #269 ), #238, .T. ) ;
#66 = CARTESIAN_POINT ( 'NONE',  ( 7.482705030319612751E-32, 0.1749999999999984901, 2.143131898507849500E-17 ) ) ;
#67 = CC_DESIGN_SECURITY_CLASSIFICATION ( #172, ( #195 ) ) ;
#68 = DATE_AND_TIME ( #322, #47 ) ;
#69 = AXIS2_PLACEMENT_3D ( 'NONE', #327, #177, #206 ) ;
#70 = EDGE_LOOP ( 'NONE', ( #332, #284, #98, #248 ) ) ;
#71 = CARTESIAN_POINT ( 'NONE',  ( 1.745740669421566993E-14, 2.478176394252621728E-14, 5.000000000000000888 ) ) ;
#72 = APPROVAL_PERSON_ORGANIZATION ( #113, #99, #260 ) ;
#73 = CARTESIAN_POINT ( 'NONE',  ( 1.043952920314096810E-13, 0.1749999999999963252, 29.89999999999999858 ) ) ;
#74 = CARTESIAN_POINT ( 'NONE',  ( 7.482705030319535023E-32, 0.1749999999999966582, 2.143131898507827006E-17 ) ) ;
#75 = CARTESIAN_POINT ( 'NONE',  ( 1.745740669421566993E-14, 2.478176394252621728E-14, 5.000000000000000888 ) ) ;
#76 = LINE ( 'NONE', #333, #221 ) ;
#77 = CIRCLE ( 'NONE', #104, 0.07500000000000001110 ) ;
#78 = ADVANCED_FACE ( 'NONE', ( #8 ), #168, .F. ) ;
#79 = AXIS2_PLACEMENT_3D ( 'NONE', #20, #324, #49 ) ;
#80 = PERSON_AND_ORGANIZATION_ROLE ( 'design_supplier' ) ;
#81 = ORIENTED_EDGE ( 'NONE', *, *, #44, .F. ) ;
#82 = APPROVAL_STATUS ( 'not_yet_approved' ) ;
#83 = ORIENTED_EDGE ( 'NONE', *, *, #92, .T. ) ;
#84 = CARTESIAN_POINT ( 'NONE',  ( 3.671313867515769021E-16, -1.287723559195135422E-17, 0.1051506083298220234 ) ) ;
#85 = CC_DESIGN_PERSON_AND_ORGANIZATION_ASSIGNMENT ( #111, #80, ( #195 ) ) ;
#86 = FACE_OUTER_BOUND ( 'NONE', #169, .T. ) ;
#87 = APPLICATION_PROTOCOL_DEFINITION ( 'international standard', 'config_control_design', 1994, #18 ) ;
#88 = CARTESIAN_POINT ( 'NONE',  ( 1.043952920314096810E-13, -3.661693929450586610E-15, 29.89999999999999858 ) ) ;
#89 = ORIENTED_EDGE ( 'NONE', *, *, #200, .T. ) ;
#90 = CONICAL_SURFACE ( 'NONE', #278, 0.1749999999999963252, 1.029744258676649649 ) ;
#91 = ORIENTED_EDGE ( 'NONE', *, *, #303, .T. ) ;
#92 = EDGE_CURVE ( 'NONE', #277, #9, #36, .T. ) ;
#93 = PERSON ( 'UNSPECIFIED', 'UNSPECIFIED', 'UNSPECIFIED', ('UNSPECIFIED'), ('UNSPECIFIED'), ('UNSPECIFIED') ) ;
#94 = DIRECTION ( 'NONE',  ( 0.0000000000000000000, 1.000000000000000000, 0.0000000000000000000 ) ) ;
#95 = AXIS2_PLACEMENT_3D ( 'NONE', #166, #266, #2 ) ;
#96 = ORIENTED_EDGE ( 'NONE', *, *, #16, .T. ) ;
#97 = DIRECTION ( 'NONE',  ( 0.0000000000000000000, 1.000000000000000000, 0.0000000000000000000 ) ) ;
#98 = ORIENTED_EDGE ( 'NONE', *, *, #310, .F. ) ;
#99 = APPROVAL ( #33, 'UNSPECIFIED' ) ;
#100 = PLANE ( 'NONE',  #173 ) ;
#101 = LOCAL_TIME ( 9, 55, 42.00000000000000000, #167 ) ;
#102 = EDGE_CURVE ( 'NONE', #298, #163, #64, .T. ) ;
#103 = DIRECTION ( 'NONE',  ( 3.491481338843133355E-15, -1.224646799147353207E-16, 1.000000000000000000 ) ) ;
#104 = AXIS2_PLACEMENT_3D ( 'NONE', #321, #315, #170 ) ;
#105 = DIRECTION ( 'NONE',  ( -3.491481338843133355E-15, 1.224646799147353207E-16, -1.000000000000000000 ) ) ;
#106 = ORIENTED_EDGE ( 'NONE', *, *, #208, .T. ) ;
#107 = CYLINDRICAL_SURFACE ( 'NONE', #255, 0.1749999999999966582 ) ;
#108 = APPROVAL ( #82, 'UNSPECIFIED' ) ;
#109 = EDGE_LOOP ( 'NONE', ( #46, #212, #106 ) ) ;
#110 = LOCAL_TIME ( 9, 55, 42.00000000000000000, #197 ) ;
#111 = PERSON_AND_ORGANIZATION ( #93, #220 ) ;
#112 = ORIENTED_EDGE ( 'NONE', *, *, #310, .T. ) ;
#113 = PERSON_AND_ORGANIZATION ( #93, #220 ) ;
#114 = ORIENTED_EDGE ( 'NONE', *, *, #331, .F. ) ;
#115 = DIRECTION ( 'NONE',  ( 0.0000000000000000000, 1.000000000000000000, 0.0000000000000000000 ) ) ;
#116 = DIRECTION ( 'NONE',  ( 4.275831445896958607E-31, 1.000000000000000000, 1.224646799147353207E-16 ) ) ;
#117 = LOCAL_TIME ( 9, 55, 42.00000000000000000, #191 ) ;
#118 = ORIENTED_EDGE ( 'NONE', *, *, #44, .T. ) ;
#119 = CIRCLE ( 'NONE', #69, 0.07500000000000001110 ) ;
#120 = DIRECTION ( 'NONE',  ( -3.491481338843133355E-15, 1.224646799147353207E-16, -1.000000000000000000 ) ) ;
#121 = CALENDAR_DATE ( 2021, 3, 9 ) ;
#122 = APPLICATION_CONTEXT ( 'configuration controlled 3d designs of mechanical parts and assemblies' ) ;
#123 = VERTEX_POINT ( 'NONE', #312 ) ;
#124 = ADVANCED_FACE ( 'NONE', ( #86 ), #293, .T. ) ;
#125 = EDGE_LOOP ( 'NONE', ( #34, #25 ) ) ;
#126 = CIRCLE ( 'NONE', #150, 0.1749999999999963252 ) ;
#127 = APPROVAL_DATE_TIME ( #276, #52 ) ;
#128 = AXIS2_PLACEMENT_3D ( 'NONE', #292, #288, #115 ) ;
#129 = LINE ( 'NONE', #287, #5 ) ;
#130 = VERTEX_POINT ( 'NONE', #148 ) ;
#131 = DIRECTION ( 'NONE',  ( -3.491481338843133355E-15, 1.224646799147353207E-16, -1.000000000000000000 ) ) ;
#132 = ORIENTED_EDGE ( 'NONE', *, *, #186, .T. ) ;
#133 = CARTESIAN_POINT ( 'NONE',  ( 1.043952920314096810E-13, -3.661693929450586610E-15, 29.89999999999999858 ) ) ;
#134 = DIRECTION ( 'NONE',  ( -4.275831445896958607E-31, -1.000000000000000000, -1.224646799147353207E-16 ) ) ;
#135 = CIRCLE ( 'NONE', #50, 0.1749999999999999889 ) ;
#136 = AXIS2_PLACEMENT_3D ( 'NONE', #301, #103, #151 ) ;
#137 = DIRECTION ( 'NONE',  ( 1.798245827342160317E-15, -0.8571673007021098911, 0.5150380749100582634 ) ) ;
#138 = ORIENTED_EDGE ( 'NONE', *, *, #175, .T. ) ;
#139 = DATE_AND_TIME ( #28, #216 ) ;
#140 = EDGE_LOOP ( 'NONE', ( #268, #187, #132, #81 ) ) ;
#141 = AXIS2_PLACEMENT_3D ( 'NONE', #203, #45, #226 ) ;
#142 =( NAMED_UNIT ( * ) PLANE_ANGLE_UNIT ( ) SI_UNIT ( $, .RADIAN. ) );
#143 = LINE ( 'NONE', #296, #263 ) ;
#144 = DIRECTION ( 'NONE',  ( -5.502656983963646991E-31, -1.000000000000000000, -1.548860246407896123E-16 ) ) ;
#145 = DIRECTION ( 'NONE',  ( 4.275831445896958607E-31, 1.000000000000000000, 1.224646799147353207E-16 ) ) ;
#146 = AXIS2_PLACEMENT_3D ( 'NONE', #133, #181, #246 ) ;
#147 = CYLINDRICAL_SURFACE ( 'NONE', #218, 0.1749999999999984901 ) ;
#148 = CARTESIAN_POINT ( 'NONE',  ( 0.0000000000000000000, 0.0000000000000000000, 0.0000000000000000000 ) ) ;
#149 = APPROVAL_ROLE ( '' ) ;
#150 = AXIS2_PLACEMENT_3D ( 'NONE', #6, #61, #59 ) ;
#151 = DIRECTION ( 'NONE',  ( -5.502656983963646991E-31, -1.000000000000000000, -1.548860246407896123E-16 ) ) ;
#152 = APPROVAL_PERSON_ORGANIZATION ( #12, #52, #149 ) ;
#153 = ORIENTED_EDGE ( 'NONE', *, *, #155, .T. ) ;
#154 = DIRECTION ( 'NONE',  ( -3.491481338843133355E-15, 1.224646799147353207E-16, -1.000000000000000000 ) ) ;
#155 = EDGE_CURVE ( 'NONE', #299, #277, #242, .T. ) ;
#156 = EDGE_LOOP ( 'NONE', ( #174, #89, #118 ) ) ;
#157 = FACE_OUTER_BOUND ( 'NONE', #140, .T. ) ;
#158 = CARTESIAN_POINT ( 'NONE',  ( 6.094778068179755249E-14, -0.1749999999999975742, 5.000000000000000888 ) ) ;
#159 = CC_DESIGN_PERSON_AND_ORGANIZATION_ASSIGNMENT ( #164, #262, ( #172 ) ) ;
#160 = CARTESIAN_POINT ( 'NONE',  ( 3.671313867515769021E-16, -1.287723559195135422E-17, 0.1051506083298220234 ) ) ;
#161 = AXIS2_PLACEMENT_3D ( 'NONE', #329, #17, #97 ) ;
#162 = CALENDAR_DATE ( 2021, 3, 9 ) ;
#163 = VERTEX_POINT ( 'NONE', #158 ) ;
#164 = PERSON_AND_ORGANIZATION ( #93, #220 ) ;
#165 = ADVANCED_FACE ( 'NONE', ( #202 ), #305, .T. ) ;
#166 = CARTESIAN_POINT ( 'NONE',  ( 0.0000000000000000000, 0.0000000000000000000, 0.0000000000000000000 ) ) ;
#167 = COORDINATED_UNIVERSAL_TIME_OFFSET ( 1, 0, .AHEAD. ) ;
#168 = PLANE ( 'NONE',  #286 ) ;
#169 = EDGE_LOOP ( 'NONE', ( #214, #256, #83, #114 ) ) ;
#170 = DIRECTION ( 'NONE',  ( 0.0000000000000000000, 1.000000000000000000, 0.0000000000000000000 ) ) ;
#171 = CC_DESIGN_PERSON_AND_ORGANIZATION_ASSIGNMENT ( #210, #309, ( #1 ) ) ;
#172 = SECURITY_CLASSIFICATION ( '', '', #183 ) ;
#173 = AXIS2_PLACEMENT_3D ( 'NONE', #71, #247, #282 ) ;
#174 = ORIENTED_EDGE ( 'NONE', *, *, #39, .F. ) ;
#175 = EDGE_CURVE ( 'NONE', #123, #298, #129, .T. ) ;
#176 = CARTESIAN_POINT ( 'NONE',  ( 2.143131898507819918E-17, -0.1749999999999966582, -2.143131898507834709E-17 ) ) ;
#177 = DIRECTION ( 'NONE',  ( -3.491481338843133355E-15, 1.224646799147353207E-16, -1.000000000000000000 ) ) ;
#178 = DIRECTION ( 'NONE',  ( 5.502656983963646991E-31, 1.000000000000000000, 1.548860246407896123E-16 ) ) ;
#179 = DIRECTION ( 'NONE',  ( -2.382254525458708792E-15, -0.7071067811865495711, -0.7071067811865455743 ) ) ;
#180 = EDGE_LOOP ( 'NONE', ( #229, #91, #153, #317 ) ) ;
#181 = DIRECTION ( 'NONE',  ( -3.491481338843133355E-15, 1.224646799147353207E-16, -1.000000000000000000 ) ) ;
#182 = CIRCLE ( 'NONE', #161, 0.1749999999999969635 ) ;
#183 = SECURITY_CLASSIFICATION_LEVEL ( 'unclassified' ) ;
#184 = VERTEX_POINT ( 'NONE', #15 ) ;
#185 = PERSON_AND_ORGANIZATION ( #93, #220 ) ;
#186 = EDGE_CURVE ( 'NONE', #19, #328, #251, .T. ) ;
#187 = ORIENTED_EDGE ( 'NONE', *, *, #231, .T. ) ;
#188 =( GEOMETRIC_REPRESENTATION_CONTEXT ( 3 ) GLOBAL_UNCERTAINTY_ASSIGNED_CONTEXT ( ( #58 ) ) GLOBAL_UNIT_ASSIGNED_CONTEXT ( ( #54, #142, #336 ) ) REPRESENTATION_CONTEXT ( 'NONE', 'WORKASPACE' ) );
#189 = DIRECTION ( 'NONE',  ( 1.000000000000000000, 0.0000000000000000000, 0.0000000000000000000 ) ) ;
#190 = ORIENTED_EDGE ( 'NONE', *, *, #186, .F. ) ;
#191 = COORDINATED_UNIVERSAL_TIME_OFFSET ( 1, 0, .AHEAD. ) ;
#192 = EDGE_LOOP ( 'NONE', ( #259, #302 ) ) ;
#193 = FACE_OUTER_BOUND ( 'NONE', #156, .T. ) ;
#194 = EDGE_LOOP ( 'NONE', ( #280, #289, #239, #190 ) ) ;
#195 = PRODUCT_DEFINITION_FORMATION_WITH_SPECIFIED_SOURCE ( 'ANY', '', #1, .NOT_KNOWN. ) ;
#196 = DIRECTION ( 'NONE',  ( -3.491481338843133355E-15, 1.224646799147353207E-16, -1.000000000000000000 ) ) ;
#197 = COORDINATED_UNIVERSAL_TIME_OFFSET ( 1, 0, .AHEAD. ) ;
#198 = CC_DESIGN_DATE_AND_TIME_ASSIGNMENT ( #4, #233, ( #11 ) ) ;
#199 = DIRECTION ( 'NONE',  ( -3.491481338843133355E-15, 1.224646799147353207E-16, -1.000000000000000000 ) ) ;
#200 = EDGE_CURVE ( 'NONE', #130, #184, #76, .T. ) ;
#201 = ADVANCED_BREP_SHAPE_REPRESENTATION ( '953167', ( #42, #48, #311 ), #188 ) ;
#202 = FACE_OUTER_BOUND ( 'NONE', #125, .T. ) ;
#203 = CARTESIAN_POINT ( 'NONE',  ( 1.745740669421566993E-14, -6.123233995736767268E-16, 5.000000000000000888 ) ) ;
#204 = DIRECTION ( 'NONE',  ( -3.491481338843133355E-15, 1.224646799147353207E-16, -1.000000000000000000 ) ) ;
#205 = DIRECTION ( 'NONE',  ( 4.275831445896958607E-31, 1.000000000000000000, 1.224646799147353207E-16 ) ) ;
#206 = DIRECTION ( 'NONE',  ( 0.0000000000000000000, 1.000000000000000000, 0.0000000000000000000 ) ) ;
#207 = APPROVAL_ROLE ( '' ) ;
#208 = EDGE_CURVE ( 'NONE', #328, #184, #323, .T. ) ;
#209 = CARTESIAN_POINT ( 'NONE',  ( 1.047444401652940007E-13, -3.673940397442059178E-15, 30.00000000000000000 ) ) ;
#210 = PERSON_AND_ORGANIZATION ( #93, #220 ) ;
#211 = AXIS2_PLACEMENT_3D ( 'NONE', #209, #199, #271 ) ;
#212 = ORIENTED_EDGE ( 'NONE', *, *, #39, .T. ) ;
#213 = CARTESIAN_POINT ( 'NONE',  ( 0.0000000000000000000, 0.0000000000000000000, 0.0000000000000000000 ) ) ;
#214 = ORIENTED_EDGE ( 'NONE', *, *, #102, .F. ) ;
#215 = DIRECTION ( 'NONE',  ( 1.903218546456022717E-15, 0.8571673007021097801, 0.5150380749100585964 ) ) ;
#216 = LOCAL_TIME ( 9, 55, 42.00000000000000000, #26 ) ;
#217 = CARTESIAN_POINT ( 'NONE',  ( 0.0000000000000000000, 0.0000000000000000000, 0.0000000000000000000 ) ) ;
#218 = AXIS2_PLACEMENT_3D ( 'NONE', #217, #319, #116 ) ;
#219 = ADVANCED_FACE ( 'NONE', ( #41 ), #300, .T. ) ;
#220 = ORGANIZATION ( 'UNSPECIFIED', 'UNSPECIFIED', '' ) ;
#221 = VECTOR ( 'NONE', #137, 1000.000000000000000 ) ;
#222 = DIRECTION ( 'NONE',  ( -2.468850131082257455E-15, 0.7071067811865497932, -0.7071067811865453523 ) ) ;
#223 = DIRECTION ( 'NONE',  ( 4.275831445896958607E-31, 1.000000000000000000, 1.224646799147353207E-16 ) ) ;
#224 = DIRECTION ( 'NONE',  ( 3.491481338843133355E-15, -1.224646799147353207E-16, 1.000000000000000000 ) ) ;
#225 = CC_DESIGN_APPROVAL ( #52, ( #172 ) ) ;
#226 = DIRECTION ( 'NONE',  ( 0.0000000000000000000, 1.000000000000000000, 0.0000000000000000000 ) ) ;
#227 = FACE_OUTER_BOUND ( 'NONE', #264, .T. ) ;
#228 = EDGE_CURVE ( 'NONE', #298, #277, #240, .T. ) ;
#229 = ORIENTED_EDGE ( 'NONE', *, *, #175, .F. ) ;
#230 = APPROVAL_DATE_TIME ( #139, #99 ) ;
#231 = EDGE_CURVE ( 'NONE', #56, #19, #182, .T. ) ;
#232 = ORIENTED_EDGE ( 'NONE', *, *, #331, .T. ) ;
#233 = DATE_TIME_ROLE ( 'creation_date' ) ;
#234 = CARTESIAN_POINT ( 'NONE',  ( 1.745740669421566993E-14, 0.1749999999999963252, 5.000000000000000888 ) ) ;
#235 = MECHANICAL_CONTEXT ( 'NONE', #18, 'mechanical' ) ;
#236 = DIRECTION ( 'NONE',  ( -3.491481338843133355E-15, 1.224646799147353207E-16, -1.000000000000000000 ) ) ;
#237 = APPROVAL_DATE_TIME ( #294, #108 ) ;
#238 = CONICAL_SURFACE ( 'NONE', #211, 0.07500000000000001110, 0.7853981633974512766 ) ;
#239 = ORIENTED_EDGE ( 'NONE', *, *, #208, .F. ) ;
#240 = CIRCLE ( 'NONE', #146, 0.1749999999999999889 ) ;
#241 = CARTESIAN_POINT ( 'NONE',  ( 1.047444401652940007E-13, 5.624099184981416081E-34, 30.00000000000000000 ) ) ;
#242 = LINE ( 'NONE', #295, #270 ) ;
#243 = EDGE_CURVE ( 'NONE', #19, #56, #314, .T. ) ;
#244 = AXIS2_PLACEMENT_3D ( 'NONE', #24, #204, #304 ) ;
#245 = APPROVAL_STATUS ( 'not_yet_approved' ) ;
#246 = DIRECTION ( 'NONE',  ( 0.0000000000000000000, 1.000000000000000000, 0.0000000000000000000 ) ) ;
#247 = DIRECTION ( 'NONE',  ( 3.491481338843133355E-15, -1.224646799147353207E-16, 1.000000000000000000 ) ) ;
#248 = ORIENTED_EDGE ( 'NONE', *, *, #92, .F. ) ;
#249 = CARTESIAN_POINT ( 'NONE',  ( 1.047444401652940007E-13, 0.07499999999999633349, 30.00000000000000000 ) ) ;
#250 = ADVANCED_FACE ( 'NONE', ( #227 ), #100, .F. ) ;
#251 = LINE ( 'NONE', #74, #35 ) ;
#252 = ORIENTED_EDGE ( 'NONE', *, *, #55, .F. ) ;
#253 = VECTOR ( 'NONE', #38, 1000.000000000000000 ) ;
#254 = CARTESIAN_POINT ( 'NONE',  ( 6.094778068179699713E-14, -0.1750000000000036526, 29.89999999999999858 ) ) ;
#255 = AXIS2_PLACEMENT_3D ( 'NONE', #279, #131, #223 ) ;
#256 = ORIENTED_EDGE ( 'NONE', *, *, #228, .T. ) ;
#257 = PERSON_AND_ORGANIZATION ( #93, #220 ) ;
#258 = CC_DESIGN_PERSON_AND_ORGANIZATION_ASSIGNMENT ( #257, #60, ( #11 ) ) ;
#259 = ORIENTED_EDGE ( 'NONE', *, *, #16, .F. ) ;
#260 = APPROVAL_ROLE ( '' ) ;
#261 = AXIS2_PLACEMENT_3D ( 'NONE', #330, #105, #205 ) ;
#262 = PERSON_AND_ORGANIZATION_ROLE ( 'classification_officer' ) ;
#263 = VECTOR ( 'NONE', #215, 999.9999999999998863 ) ;
#264 = EDGE_LOOP ( 'NONE', ( #112, #232 ) ) ;
#265 = DIRECTION ( 'NONE',  ( 0.0000000000000000000, 0.0000000000000000000, 1.000000000000000000 ) ) ;
#266 = DIRECTION ( 'NONE',  ( -3.491481338843133355E-15, 1.224646799147353207E-16, -1.000000000000000000 ) ) ;
#267 = CALENDAR_DATE ( 2021, 3, 9 ) ;
#268 = ORIENTED_EDGE ( 'NONE', *, *, #274, .F. ) ;
#269 = FACE_OUTER_BOUND ( 'NONE', #31, .T. ) ;
#270 = VECTOR ( 'NONE', #222, 1000.000000000000114 ) ;
#271 = DIRECTION ( 'NONE',  ( 0.0000000000000000000, 1.000000000000000000, 0.0000000000000000000 ) ) ;
#272 = CC_DESIGN_APPROVAL ( #108, ( #11 ) ) ;
#273 = DATE_TIME_ROLE ( 'classification_date' ) ;
#274 = EDGE_CURVE ( 'NONE', #56, #184, #306, .T. ) ;
#275 = AXIS2_PLACEMENT_3D ( 'NONE', #75, #224, #134 ) ;
#276 = DATE_AND_TIME ( #121, #110 ) ;
#277 = VERTEX_POINT ( 'NONE', #73 ) ;
#278 = AXIS2_PLACEMENT_3D ( 'NONE', #84, #53, #144 ) ;
#279 = CARTESIAN_POINT ( 'NONE',  ( 0.0000000000000000000, 0.0000000000000000000, 0.0000000000000000000 ) ) ;
#280 = ORIENTED_EDGE ( 'NONE', *, *, #243, .T. ) ;
#281 = DIRECTION ( 'NONE',  ( -3.491481338843133355E-15, 1.224646799147353207E-16, -1.000000000000000000 ) ) ;
#282 = DIRECTION ( 'NONE',  ( -4.275831445896958607E-31, -1.000000000000000000, -1.224646799147353207E-16 ) ) ;
#283 = DIRECTION ( 'NONE',  ( -3.491481338843133355E-15, 1.224646799147353207E-16, -1.000000000000000000 ) ) ;
#284 = ORIENTED_EDGE ( 'NONE', *, *, #102, .T. ) ;
#285 = CC_DESIGN_DATE_AND_TIME_ASSIGNMENT ( #68, #273, ( #172 ) ) ;
#286 = AXIS2_PLACEMENT_3D ( 'NONE', #241, #120, #145 ) ;
#287 = CARTESIAN_POINT ( 'NONE',  ( 1.047536250162875976E-13, -0.07500000000000367484, 30.00000000000000000 ) ) ;
#288 = DIRECTION ( 'NONE',  ( -3.491481338843133355E-15, 1.224646799147353207E-16, -1.000000000000000000 ) ) ;
#289 = ORIENTED_EDGE ( 'NONE', *, *, #274, .T. ) ;
#290 = PERSON_AND_ORGANIZATION ( #93, #220 ) ;
#291 = CC_DESIGN_PERSON_AND_ORGANIZATION_ASSIGNMENT ( #290, #57, ( #195 ) ) ;
#292 = CARTESIAN_POINT ( 'NONE',  ( 1.745740669421566993E-14, -6.123233995736767268E-16, 5.000000000000000888 ) ) ;
#293 = CYLINDRICAL_SURFACE ( 'NONE', #95, 0.1749999999999984901 ) ;
#294 = DATE_AND_TIME ( #162, #117 ) ;
#295 = CARTESIAN_POINT ( 'NONE',  ( 1.047444401652940007E-13, 0.07499999999999633349, 30.00000000000000000 ) ) ;
#296 = CARTESIAN_POINT ( 'NONE',  ( 3.885627057366552276E-16, 0.1749999999999963252, 0.1051506083298220373 ) ) ;
#297 = ADVANCED_FACE ( 'NONE', ( #21 ), #107, .T. ) ;
#298 = VERTEX_POINT ( 'NONE', #254 ) ;
#299 = VERTEX_POINT ( 'NONE', #249 ) ;
#300 = CONICAL_SURFACE ( 'NONE', #136, 0.1749999999999963252, 1.029744258676649649 ) ;
#301 = CARTESIAN_POINT ( 'NONE',  ( 3.671313867515769021E-16, -1.287723559195135422E-17, 0.1051506083298220234 ) ) ;
#302 = ORIENTED_EDGE ( 'NONE', *, *, #303, .F. ) ;
#303 = EDGE_CURVE ( 'NONE', #123, #299, #119, .T. ) ;
#304 = DIRECTION ( 'NONE',  ( 0.0000000000000000000, 1.000000000000000000, 0.0000000000000000000 ) ) ;
#305 = PLANE ( 'NONE',  #275 ) ;
#306 = LINE ( 'NONE', #176, #23 ) ;
#307 = FACE_OUTER_BOUND ( 'NONE', #180, .T. ) ;
#308 = CLOSED_SHELL ( 'NONE', ( #297, #219, #335, #326, #165 ) ) ;
#309 = PERSON_AND_ORGANIZATION_ROLE ( 'design_owner' ) ;
#310 = EDGE_CURVE ( 'NONE', #9, #163, #3, .T. ) ;
#311 = AXIS2_PLACEMENT_3D ( 'NONE', #213, #265, #189 ) ;
#312 = CARTESIAN_POINT ( 'NONE',  ( 1.045851741833411796E-13, -0.07500000000000367484, 30.00000000000000000 ) ) ;
#313 = APPLICATION_PROTOCOL_DEFINITION ( 'international standard', 'config_control_design', 1994, #122 ) ;
#314 = CIRCLE ( 'NONE', #79, 0.1749999999999969635 ) ;
#315 = DIRECTION ( 'NONE',  ( -3.491481338843133355E-15, 1.224646799147353207E-16, -1.000000000000000000 ) ) ;
#316 = CARTESIAN_POINT ( 'NONE',  ( 3.885627057366552276E-16, 0.1749999999999963252, 0.1051506083298220373 ) ) ;
#317 = ORIENTED_EDGE ( 'NONE', *, *, #228, .F. ) ;
#318 = ADVANCED_FACE ( 'NONE', ( #307 ), #27, .T. ) ;
#319 = DIRECTION ( 'NONE',  ( -3.491481338843133355E-15, 1.224646799147353207E-16, -1.000000000000000000 ) ) ;
#320 = APPROVAL_PERSON_ORGANIZATION ( #185, #108, #207 ) ;
#321 = CARTESIAN_POINT ( 'NONE',  ( 1.047444401652940007E-13, -3.673940397442059178E-15, 30.00000000000000000 ) ) ;
#322 = CALENDAR_DATE ( 2021, 3, 9 ) ;
#323 = CIRCLE ( 'NONE', #51, 0.1749999999999963252 ) ;
#324 = DIRECTION ( 'NONE',  ( -3.491481338843133355E-15, 1.224646799147353207E-16, -1.000000000000000000 ) ) ;
#325 = ORIENTED_EDGE ( 'NONE', *, *, #155, .F. ) ;
#326 = ADVANCED_FACE ( 'NONE', ( #157 ), #43, .T. ) ;
#327 = CARTESIAN_POINT ( 'NONE',  ( 1.047444401652940007E-13, -3.673940397442059178E-15, 30.00000000000000000 ) ) ;
#328 = VERTEX_POINT ( 'NONE', #316 ) ;
#329 = CARTESIAN_POINT ( 'NONE',  ( 1.745740669421566993E-14, -6.123233995736767268E-16, 5.000000000000000888 ) ) ;
#330 = CARTESIAN_POINT ( 'NONE',  ( 0.0000000000000000000, 0.0000000000000000000, 0.0000000000000000000 ) ) ;
#331 = EDGE_CURVE ( 'NONE', #163, #9, #14, .T. ) ;
#332 = ORIENTED_EDGE ( 'NONE', *, *, #55, .T. ) ;
#333 = CARTESIAN_POINT ( 'NONE',  ( 3.671313867515768034E-16, -0.1749999999999963252, 0.1051506083298219957 ) ) ;
#334 = CLOSED_SHELL ( 'NONE', ( #65, #29, #250, #124, #318, #78 ) ) ;
#335 = ADVANCED_FACE ( 'NONE', ( #193 ), #90, .T. ) ;
#336 =( NAMED_UNIT ( * ) SI_UNIT ( $, .STERADIAN. ) SOLID_ANGLE_UNIT ( ) );
#337 = CARTESIAN_POINT ( 'NONE',  ( 8.933700359468674502E-15, -0.1749999999999975742, 5.000000000000000888 ) ) ;
ENDSEC;
END-ISO-10303-21;
