ISO-10303-21;
HEADER;
FILE_DESCRIPTION (( 'STEP AP203' ),
    '1' );
FILE_NAME ('953165.step',
    '2021-09-03T07:55:36',
    ( '' ),
    ( '' ),
    'SwSTEP 2.0',
    'SolidWorks 2019',
    '' );
FILE_SCHEMA (( 'CONFIG_CONTROL_DESIGN' ));
ENDSEC;

DATA;
#1 = CARTESIAN_POINT ( 'NONE',  ( 1.047444401652940007E-13, 0.04999999999998971933, 30.00000000000000000 ) ) ;
#2 = CC_DESIGN_APPROVAL ( #118, ( #104 ) ) ;
#3 = FACE_OUTER_BOUND ( 'NONE', #90, .T. ) ;
#4 = CARTESIAN_POINT ( 'NONE',  ( 1.047444401652940007E-13, 3.749399456653598434E-34, 30.00000000000000000 ) ) ;
#5 = DIRECTION ( 'NONE',  ( 3.209883240645616566E-31, 1.000000000000000000, 9.035018104046499318E-17 ) ) ;
#6 = AXIS2_PLACEMENT_3D ( 'NONE', #48, #264, #107 ) ;
#7 = DIRECTION ( 'NONE',  ( -4.275831445896958607E-31, -1.000000000000000000, -1.224646799147353207E-16 ) ) ;
#8 = PERSON_AND_ORGANIZATION_ROLE ( 'design_owner' ) ;
#9 = ORIENTED_EDGE ( 'NONE', *, *, #55, .F. ) ;
#10 = EDGE_CURVE ( 'NONE', #87, #337, #96, .T. ) ;
#11 = APPROVAL_DATE_TIME ( #167, #79 ) ;
#12 = DESIGN_CONTEXT ( 'detailed design', #75, 'design' ) ;
#13 = COORDINATED_UNIVERSAL_TIME_OFFSET ( 1, 0, .AHEAD. ) ;
#14 = AXIS2_PLACEMENT_3D ( 'NONE', #307, #232, #157 ) ;
#15 = ORIENTED_EDGE ( 'NONE', *, *, #10, .T. ) ;
#16 = EDGE_CURVE ( 'NONE', #273, #222, #259, .T. ) ;
#17 = COORDINATED_UNIVERSAL_TIME_OFFSET ( 1, 0, .AHEAD. ) ;
#18 = COORDINATED_UNIVERSAL_TIME_OFFSET ( 1, 0, .AHEAD. ) ;
#19 = EDGE_LOOP ( 'NONE', ( #327, #277 ) ) ;
#20 = DATE_TIME_ROLE ( 'classification_date' ) ;
#21 = DIRECTION ( 'NONE',  ( 0.0000000000000000000, 1.000000000000000000, 0.0000000000000000000 ) ) ;
#22 = AXIS2_PLACEMENT_3D ( 'NONE', #47, #257, #81 ) ;
#23 = FACE_OUTER_BOUND ( 'NONE', #242, .T. ) ;
#24 = FACE_OUTER_BOUND ( 'NONE', #328, .T. ) ;
#25 = CARTESIAN_POINT ( 'NONE',  ( 6.413747168845082549E-32, 0.1499999999999916955, 1.836970198720928060E-17 ) ) ;
#26 = VECTOR ( 'NONE', #78, 1000.000000000000000 ) ;
#27 = VERTEX_POINT ( 'NONE', #284 ) ;
#28 = DIRECTION ( 'NONE',  ( -3.491481338843133355E-15, 1.224646799147353207E-16, -1.000000000000000000 ) ) ;
#29 = CARTESIAN_POINT ( 'NONE',  ( 1.047444401652940007E-13, -3.673940397442059178E-15, 30.00000000000000000 ) ) ;
#30 = AXIS2_PLACEMENT_3D ( 'NONE', #179, #106, #5 ) ;
#31 = FACE_OUTER_BOUND ( 'NONE', #19, .T. ) ;
#32 = DIRECTION ( 'NONE',  ( 4.275831445896958607E-31, 1.000000000000000000, 1.224646799147353207E-16 ) ) ;
#33 = DIRECTION ( 'NONE',  ( -2.468850131082302815E-15, 0.7071067811865369146, -0.7071067811865582309 ) ) ;
#34 = APPROVAL_PERSON_ORGANIZATION ( #246, #86, #142 ) ;
#35 = DATE_TIME_ROLE ( 'creation_date' ) ;
#36 = ORIENTED_EDGE ( 'NONE', *, *, #16, .T. ) ;
#37 = DIRECTION ( 'NONE',  ( -3.491481338843133355E-15, 1.224646799147353207E-16, -1.000000000000000000 ) ) ;
#38 = ORIENTED_EDGE ( 'NONE', *, *, #83, .T. ) ;
#39 = AXIS2_PLACEMENT_3D ( 'NONE', #159, #161, #316 ) ;
#40 = CALENDAR_DATE ( 2021, 3, 9 ) ;
#41 = DIRECTION ( 'NONE',  ( 4.275831445896958607E-31, 1.000000000000000000, 1.224646799147353454E-16 ) ) ;
#42 = ADVANCED_FACE ( 'NONE', ( #23 ), #129, .T. ) ;
#43 = ORIENTED_EDGE ( 'NONE', *, *, #295, .T. ) ;
#44 = EDGE_CURVE ( 'NONE', #222, #73, #233, .T. ) ;
#45 = DIRECTION ( 'NONE',  ( -3.491481338843133355E-15, 1.224646799147353207E-16, -1.000000000000000000 ) ) ;
#46 = CIRCLE ( 'NONE', #39, 0.04999999999999339695 ) ;
#47 = CARTESIAN_POINT ( 'NONE',  ( 1.047444401652940007E-13, -3.673940397442059178E-15, 30.00000000000000000 ) ) ;
#48 = CARTESIAN_POINT ( 'NONE',  ( 1.745740669421566993E-14, -6.123233995736767268E-16, 5.000000000000000888 ) ) ;
#49 = CC_DESIGN_PERSON_AND_ORGANIZATION_ASSIGNMENT ( #112, #88, ( #178 ) ) ;
#50 = DIRECTION ( 'NONE',  ( -3.209883240645616566E-31, -1.000000000000000000, -9.035018104046499318E-17 ) ) ;
#51 = AXIS2_PLACEMENT_3D ( 'NONE', #319, #163, #315 ) ;
#52 = CARTESIAN_POINT ( 'NONE',  ( 1.836970198720921897E-17, -0.1499999999999916955, -1.836970198720934531E-17 ) ) ;
#53 = CARTESIAN_POINT ( 'NONE',  ( 1.047444401652940007E-13, 0.04999999999998971933, 30.00000000000000000 ) ) ;
#54 = APPLICATION_CONTEXT ( 'configuration controlled 3d designs of mechanical parts and assemblies' ) ;
#55 = EDGE_CURVE ( 'NONE', #87, #67, #321, .T. ) ;
#56 = CARTESIAN_POINT ( 'NONE',  ( 3.146840457870524209E-16, -0.1499999999999895584, 0.09012909285412930294 ) ) ;
#57 = CLOSED_SHELL ( 'NONE', ( #66, #92, #138, #111, #180, #293 ) ) ;
#58 = APPROVAL_PERSON_ORGANIZATION ( #187, #79, #194 ) ;
#59 = APPLICATION_PROTOCOL_DEFINITION ( 'international standard', 'config_control_design', 1994, #54 ) ;
#60 = DIRECTION ( 'NONE',  ( -3.491481338843133355E-15, 1.224646799147353207E-16, -1.000000000000000000 ) ) ;
#61 = EDGE_LOOP ( 'NONE', ( #193, #43, #38 ) ) ;
#62 = CARTESIAN_POINT ( 'NONE',  ( 3.146840457870524209E-16, -0.1499999999999895584, 0.09012909285412930294 ) ) ;
#63 = CC_DESIGN_DATE_AND_TIME_ASSIGNMENT ( #268, #20, ( #104 ) ) ;
#64 = PERSON_AND_ORGANIZATION ( #333, #253 ) ;
#65 = EDGE_LOOP ( 'NONE', ( #171, #9 ) ) ;
#66 = ADVANCED_FACE ( 'NONE', ( #278 ), #323, .T. ) ;
#67 = VERTEX_POINT ( 'NONE', #176 ) ;
#68 = CYLINDRICAL_SURFACE ( 'NONE', #204, 0.1499999999999916955 ) ;
#69 = CLOSED_SHELL ( 'NONE', ( #166, #285, #256, #42, #130 ) ) ;
#70 = ORIENTED_EDGE ( 'NONE', *, *, #208, .F. ) ;
#71 = AXIS2_PLACEMENT_3D ( 'NONE', #209, #97, #100 ) ;
#72 = ORIENTED_EDGE ( 'NONE', *, *, #110, .T. ) ;
#73 = VERTEX_POINT ( 'NONE', #283 ) ;
#74 = EDGE_CURVE ( 'NONE', #123, #273, #154, .T. ) ;
#75 = APPLICATION_CONTEXT ( 'configuration controlled 3d designs of mechanical parts and assemblies' ) ;
#76 = FACE_OUTER_BOUND ( 'NONE', #228, .T. ) ;
#77 = CC_DESIGN_APPROVAL ( #86, ( #178 ) ) ;
#78 = DIRECTION ( 'NONE',  ( -3.491481338843133355E-15, 1.224646799147353207E-16, -1.000000000000000000 ) ) ;
#79 = APPROVAL ( #221, 'UNSPECIFIED' ) ;
#80 = CARTESIAN_POINT ( 'NONE',  ( 1.043952920314096684E-13, 0.1499999999999895584, 29.89999999999999503 ) ) ;
#81 = DIRECTION ( 'NONE',  ( 0.0000000000000000000, 1.000000000000000000, 0.0000000000000000000 ) ) ;
#82 = DIRECTION ( 'NONE',  ( 0.0000000000000000000, 1.000000000000000000, 0.0000000000000000000 ) ) ;
#83 = EDGE_CURVE ( 'NONE', #337, #202, #261, .T. ) ;
#84 = PERSON_AND_ORGANIZATION_ROLE ( 'creator' ) ;
#85 = DIRECTION ( 'NONE',  ( 1.000000000000000000, 0.0000000000000000000, 0.0000000000000000000 ) ) ;
#86 = APPROVAL ( #322, 'UNSPECIFIED' ) ;
#87 = VERTEX_POINT ( 'NONE', #203 ) ;
#88 = PERSON_AND_ORGANIZATION_ROLE ( 'design_supplier' ) ;
#89 = ORIENTED_EDGE ( 'NONE', *, *, #201, .T. ) ;
#90 = EDGE_LOOP ( 'NONE', ( #165, #114, #255 ) ) ;
#91 =( NAMED_UNIT ( * ) SI_UNIT ( $, .STERADIAN. ) SOLID_ANGLE_UNIT ( ) );
#92 = ADVANCED_FACE ( 'NONE', ( #76 ), #68, .T. ) ;
#93 = CC_DESIGN_APPROVAL ( #79, ( #288 ) ) ;
#94 = ORIENTED_EDGE ( 'NONE', *, *, #44, .T. ) ;
#95 = PERSON_AND_ORGANIZATION ( #333, #253 ) ;
#96 = LINE ( 'NONE', #311, #190 ) ;
#97 = DIRECTION ( 'NONE',  ( -3.491481338843133355E-15, 1.224646799147353207E-16, -1.000000000000000000 ) ) ;
#98 = CARTESIAN_POINT ( 'NONE',  ( 0.0000000000000000000, 0.0000000000000000000, 0.0000000000000000000 ) ) ;
#99 = CIRCLE ( 'NONE', #30, 0.1499999999999895584 ) ;
#100 = DIRECTION ( 'NONE',  ( 3.209883240645616566E-31, 1.000000000000000000, 9.035018104046499318E-17 ) ) ;
#101 = EDGE_CURVE ( 'NONE', #73, #300, #173, .T. ) ;
#102 = CARTESIAN_POINT ( 'NONE',  ( 1.043952920314096684E-13, -3.661693929450585821E-15, 29.89999999999999503 ) ) ;
#103 = DIRECTION ( 'NONE',  ( 1.903218546456029816E-15, 0.8571673007021084478, 0.5150380749100607058 ) ) ;
#104 = SECURITY_CLASSIFICATION ( '', '', #149 ) ;
#105 = CARTESIAN_POINT ( 'NONE',  ( 3.146840457870524702E-16, -1.103763050738640380E-17, 0.09012909285412931681 ) ) ;
#106 = DIRECTION ( 'NONE',  ( -3.491481338843133355E-15, 1.224646799147353207E-16, -1.000000000000000000 ) ) ;
#107 = DIRECTION ( 'NONE',  ( 0.0000000000000000000, 1.000000000000000000, 0.0000000000000000000 ) ) ;
#108 = VECTOR ( 'NONE', #103, 1000.000000000000227 ) ;
#109 = PLANE ( 'NONE',  #281 ) ;
#110 = EDGE_CURVE ( 'NONE', #300, #73, #116, .T. ) ;
#111 = ADVANCED_FACE ( 'NONE', ( #24 ), #128, .T. ) ;
#112 = PERSON_AND_ORGANIZATION ( #333, #253 ) ;
#113 = EDGE_CURVE ( 'NONE', #273, #300, #158, .T. ) ;
#114 = ORIENTED_EDGE ( 'NONE', *, *, #168, .T. ) ;
#115 = AXIS2_PLACEMENT_3D ( 'NONE', #308, #45, #250 ) ;
#116 = CIRCLE ( 'NONE', #219, 0.1499999999999901690 ) ;
#117 = DATE_AND_TIME ( #196, #286 ) ;
#118 = APPROVAL ( #306, 'UNSPECIFIED' ) ;
#119 = ORIENTED_EDGE ( 'NONE', *, *, #101, .F. ) ;
#120 = ORIENTED_EDGE ( 'NONE', *, *, #199, .F. ) ;
#121 = MECHANICAL_CONTEXT ( 'NONE', #54, 'mechanical' ) ;
#122 = CC_DESIGN_PERSON_AND_ORGANIZATION_ASSIGNMENT ( #64, #8, ( #160 ) ) ;
#123 = VERTEX_POINT ( 'NONE', #133 ) ;
#124 = AXIS2_PLACEMENT_3D ( 'NONE', #211, #214, #314 ) ;
#125 = APPROVAL_ROLE ( '' ) ;
#126 = DIRECTION ( 'NONE',  ( -3.491481338843133355E-15, 1.224646799147353207E-16, -1.000000000000000000 ) ) ;
#127 = CARTESIAN_POINT ( 'NONE',  ( 0.0000000000000000000, 0.0000000000000000000, 0.0000000000000000000 ) ) ;
#128 = CYLINDRICAL_SURFACE ( 'NONE', #269, 0.1499999999999916955 ) ;
#129 = CYLINDRICAL_SURFACE ( 'NONE', #135, 0.1499999999999898637 ) ;
#130 = ADVANCED_FACE ( 'NONE', ( #140 ), #109, .T. ) ;
#131 = AXIS2_PLACEMENT_3D ( 'NONE', #251, #126, #227 ) ;
#132 = CARTESIAN_POINT ( 'NONE',  ( 1.047505633992897362E-13, -0.04999999999999706762, 30.00000000000000000 ) ) ;
#133 = CARTESIAN_POINT ( 'NONE',  ( 1.045821125663433055E-13, -0.04999999999999706762, 30.00000000000000000 ) ) ;
#134 = DIRECTION ( 'NONE',  ( 3.491481338843133355E-15, -1.224646799147353207E-16, 1.000000000000000000 ) ) ;
#135 = AXIS2_PLACEMENT_3D ( 'NONE', #127, #249, #41 ) ;
#136 = AXIS2_PLACEMENT_3D ( 'NONE', #4, #60, #188 ) ;
#137 = CARTESIAN_POINT ( 'NONE',  ( 3.330537477742615690E-16, 0.1499999999999895584, 0.09012909285412931681 ) ) ;
#138 = ADVANCED_FACE ( 'NONE', ( #216 ), #183, .F. ) ;
#139 = CYLINDRICAL_SURFACE ( 'NONE', #240, 0.1499999999999898637 ) ;
#140 = FACE_OUTER_BOUND ( 'NONE', #65, .T. ) ;
#141 =( GEOMETRIC_REPRESENTATION_CONTEXT ( 3 ) GLOBAL_UNCERTAINTY_ASSIGNED_CONTEXT ( ( #309 ) ) GLOBAL_UNIT_ASSIGNED_CONTEXT ( ( #270, #274, #91 ) ) REPRESENTATION_CONTEXT ( 'NONE', 'WORKASPACE' ) );
#142 = APPROVAL_ROLE ( '' ) ;
#143 = LINE ( 'NONE', #56, #215 ) ;
#144 = EDGE_LOOP ( 'NONE', ( #324, #298, #177, #197 ) ) ;
#145 = CIRCLE ( 'NONE', #6, 0.1499999999999901690 ) ;
#146 = PERSON_AND_ORGANIZATION_ROLE ( 'creator' ) ;
#147 = CC_DESIGN_PERSON_AND_ORGANIZATION_ASSIGNMENT ( #170, #84, ( #178 ) ) ;
#148 = EDGE_CURVE ( 'NONE', #123, #195, #46, .T. ) ;
#149 = SECURITY_CLASSIFICATION_LEVEL ( 'unclassified' ) ;
#150 = ORIENTED_EDGE ( 'NONE', *, *, #74, .F. ) ;
#151 = DIRECTION ( 'NONE',  ( 4.275831445896958607E-31, 1.000000000000000000, 1.224646799147353207E-16 ) ) ;
#152 = LOCAL_TIME ( 9, 55, 36.00000000000000000, #226 ) ;
#153 = ORIENTED_EDGE ( 'NONE', *, *, #101, .T. ) ;
#154 = LINE ( 'NONE', #132, #329 ) ;
#155 = ORIENTED_EDGE ( 'NONE', *, *, #55, .T. ) ;
#156 = APPROVAL_DATE_TIME ( #330, #118 ) ;
#157 = DIRECTION ( 'NONE',  ( 0.0000000000000000000, 1.000000000000000000, 0.0000000000000000000 ) ) ;
#158 = LINE ( 'NONE', #52, #317 ) ;
#159 = CARTESIAN_POINT ( 'NONE',  ( 1.047444401652940007E-13, -3.673940397442059178E-15, 30.00000000000000000 ) ) ;
#160 = PRODUCT ( '953165', '953165', '', ( #121 ) ) ;
#161 = DIRECTION ( 'NONE',  ( -3.491481338843133355E-15, 1.224646799147353207E-16, -1.000000000000000000 ) ) ;
#162 = CONICAL_SURFACE ( 'NONE', #184, 0.1499999999999895584, 1.029744258676646984 ) ;
#163 = DIRECTION ( 'NONE',  ( 3.491481338843133355E-15, -1.224646799147353207E-16, 1.000000000000000000 ) ) ;
#164 = FACE_OUTER_BOUND ( 'NONE', #189, .T. ) ;
#165 = ORIENTED_EDGE ( 'NONE', *, *, #295, .F. ) ;
#166 = ADVANCED_FACE ( 'NONE', ( #164 ), #139, .T. ) ;
#167 = DATE_AND_TIME ( #271, #198 ) ;
#168 = EDGE_CURVE ( 'NONE', #27, #202, #234, .T. ) ;
#169 = AXIS2_PLACEMENT_3D ( 'NONE', #105, #182, #50 ) ;
#170 = PERSON_AND_ORGANIZATION ( #333, #253 ) ;
#171 = ORIENTED_EDGE ( 'NONE', *, *, #223, .F. ) ;
#172 = DIRECTION ( 'NONE',  ( 0.0000000000000000000, 1.000000000000000000, 0.0000000000000000000 ) ) ;
#173 = CIRCLE ( 'NONE', #131, 0.1499999999999901690 ) ;
#174 = DIRECTION ( 'NONE',  ( -3.491481338843133355E-15, 1.224646799147353207E-16, -1.000000000000000000 ) ) ;
#175 = PRODUCT_RELATED_PRODUCT_CATEGORY ( 'detail', '', ( #160 ) ) ;
#176 = CARTESIAN_POINT ( 'NONE',  ( 1.745740669421566993E-14, 0.1499999999999895584, 5.000000000000000888 ) ) ;
#177 = ORIENTED_EDGE ( 'NONE', *, *, #201, .F. ) ;
#178 = PRODUCT_DEFINITION_FORMATION_WITH_SPECIFIED_SOURCE ( 'ANY', '', #160, .NOT_KNOWN. ) ;
#179 = CARTESIAN_POINT ( 'NONE',  ( 3.146840457870524702E-16, -1.103763050738640380E-17, 0.09012909285412931681 ) ) ;
#180 = ADVANCED_FACE ( 'NONE', ( #287 ), #245, .T. ) ;
#181 = DIRECTION ( 'NONE',  ( 3.491481338843133355E-15, -1.224646799147353207E-16, 1.000000000000000000 ) ) ;
#182 = DIRECTION ( 'NONE',  ( 3.491481338843133355E-15, -1.224646799147353207E-16, 1.000000000000000000 ) ) ;
#183 = PLANE ( 'NONE',  #51 ) ;
#184 = AXIS2_PLACEMENT_3D ( 'NONE', #186, #134, #294 ) ;
#185 = CC_DESIGN_PERSON_AND_ORGANIZATION_ASSIGNMENT ( #247, #217, ( #104 ) ) ;
#186 = CARTESIAN_POINT ( 'NONE',  ( 3.146840457870524702E-16, -1.103763050738640380E-17, 0.09012909285412931681 ) ) ;
#187 = PERSON_AND_ORGANIZATION ( #333, #253 ) ;
#188 = DIRECTION ( 'NONE',  ( 4.275831445896958607E-31, 1.000000000000000000, 1.224646799147353207E-16 ) ) ;
#189 = EDGE_LOOP ( 'NONE', ( #218, #15, #120, #70 ) ) ;
#190 = VECTOR ( 'NONE', #230, 1000.000000000000000 ) ;
#191 = CC_DESIGN_SECURITY_CLASSIFICATION ( #104, ( #178 ) ) ;
#192 = PERSON_AND_ORGANIZATION ( #333, #253 ) ;
#193 = ORIENTED_EDGE ( 'NONE', *, *, #168, .F. ) ;
#194 = APPROVAL_ROLE ( '' ) ;
#195 = VERTEX_POINT ( 'NONE', #1 ) ;
#196 = CALENDAR_DATE ( 2021, 3, 9 ) ;
#197 = ORIENTED_EDGE ( 'NONE', *, *, #263, .F. ) ;
#198 = LOCAL_TIME ( 9, 55, 36.00000000000000000, #326 ) ;
#199 = EDGE_CURVE ( 'NONE', #202, #337, #99, .T. ) ;
#200 = ORIENTED_EDGE ( 'NONE', *, *, #83, .F. ) ;
#201 = EDGE_CURVE ( 'NONE', #222, #273, #291, .T. ) ;
#202 = VERTEX_POINT ( 'NONE', #289 ) ;
#203 = CARTESIAN_POINT ( 'NONE',  ( 8.904415071988535861E-15, -0.1499999999999908074, 5.000000000000000888 ) ) ;
#204 = AXIS2_PLACEMENT_3D ( 'NONE', #336, #37, #151 ) ;
#205 = ORIENTED_EDGE ( 'NONE', *, *, #10, .F. ) ;
#206 = CC_DESIGN_DATE_AND_TIME_ASSIGNMENT ( #117, #35, ( #288 ) ) ;
#207 = EDGE_LOOP ( 'NONE', ( #150, #252, #303, #310 ) ) ;
#208 = EDGE_CURVE ( 'NONE', #67, #202, #258, .T. ) ;
#209 = CARTESIAN_POINT ( 'NONE',  ( 3.146840457870524702E-16, -1.103763050738640380E-17, 0.09012909285412931681 ) ) ;
#210 = CIRCLE ( 'NONE', #275, 0.04999999999999339695 ) ;
#211 = CARTESIAN_POINT ( 'NONE',  ( 1.043952920314096684E-13, -3.661693929450585821E-15, 29.89999999999999503 ) ) ;
#212 = CARTESIAN_POINT ( 'NONE',  ( 6.094471906479899686E-14, -0.1499999999999968581, 29.89999999999999503 ) ) ;
#213 = DIRECTION ( 'NONE',  ( -3.491481338843133355E-15, 1.224646799147353207E-16, -1.000000000000000000 ) ) ;
#214 = DIRECTION ( 'NONE',  ( -3.491481338843133355E-15, 1.224646799147353207E-16, -1.000000000000000000 ) ) ;
#215 = VECTOR ( 'NONE', #299, 1000.000000000000114 ) ;
#216 = FACE_OUTER_BOUND ( 'NONE', #248, .T. ) ;
#217 = PERSON_AND_ORGANIZATION_ROLE ( 'classification_officer' ) ;
#218 = ORIENTED_EDGE ( 'NONE', *, *, #223, .T. ) ;
#219 = AXIS2_PLACEMENT_3D ( 'NONE', #279, #334, #21 ) ;
#220 = CALENDAR_DATE ( 2021, 3, 9 ) ;
#221 = APPROVAL_STATUS ( 'not_yet_approved' ) ;
#222 = VERTEX_POINT ( 'NONE', #80 ) ;
#223 = EDGE_CURVE ( 'NONE', #67, #87, #145, .T. ) ;
#224 = APPLICATION_PROTOCOL_DEFINITION ( 'international standard', 'config_control_design', 1994, #75 ) ;
#225 = LOCAL_TIME ( 9, 55, 36.00000000000000000, #17 ) ;
#226 = COORDINATED_UNIVERSAL_TIME_OFFSET ( 1, 0, .AHEAD. ) ;
#227 = DIRECTION ( 'NONE',  ( 0.0000000000000000000, 1.000000000000000000, 0.0000000000000000000 ) ) ;
#228 = EDGE_LOOP ( 'NONE', ( #89, #331, #119, #312 ) ) ;
#229 = EDGE_CURVE ( 'NONE', #195, #123, #210, .T. ) ;
#230 = DIRECTION ( 'NONE',  ( -3.491481338843133355E-15, 1.224646799147353207E-16, -1.000000000000000000 ) ) ;
#231 = CONICAL_SURFACE ( 'NONE', #169, 0.1499999999999895584, 1.029744258676646984 ) ;
#232 = DIRECTION ( 'NONE',  ( -3.491481338843133355E-15, 1.224646799147353207E-16, -1.000000000000000000 ) ) ;
#233 = LINE ( 'NONE', #25, #280 ) ;
#234 = LINE ( 'NONE', #137, #108 ) ;
#235 = AXIS2_PLACEMENT_3D ( 'NONE', #102, #282, #172 ) ;
#236 = LINE ( 'NONE', #53, #335 ) ;
#237 = PLANE ( 'NONE',  #136 ) ;
#238 = CARTESIAN_POINT ( 'NONE',  ( 1.745740669421566993E-14, 1.124819836996308362E-33, 5.000000000000000888 ) ) ;
#239 = DIRECTION ( 'NONE',  ( -3.491481338843133355E-15, 1.224646799147353207E-16, -1.000000000000000000 ) ) ;
#240 = AXIS2_PLACEMENT_3D ( 'NONE', #290, #213, #266 ) ;
#241 = APPROVAL_DATE_TIME ( #302, #86 ) ;
#242 = EDGE_LOOP ( 'NONE', ( #205, #155, #305, #200 ) ) ;
#243 = CARTESIAN_POINT ( 'NONE',  ( 0.0000000000000000000, 0.0000000000000000000, 0.0000000000000000000 ) ) ;
#244 = ORIENTED_EDGE ( 'NONE', *, *, #113, .F. ) ;
#245 = CONICAL_SURFACE ( 'NONE', #22, 0.04999999999999339695, 0.7853981633974330689 ) ;
#246 = PERSON_AND_ORGANIZATION ( #333, #253 ) ;
#247 = PERSON_AND_ORGANIZATION ( #333, #253 ) ;
#248 = EDGE_LOOP ( 'NONE', ( #153, #72 ) ) ;
#249 = DIRECTION ( 'NONE',  ( -3.491481338843133355E-15, 1.224646799147353207E-16, -1.000000000000000000 ) ) ;
#250 = DIRECTION ( 'NONE',  ( 0.0000000000000000000, 1.000000000000000000, 0.0000000000000000000 ) ) ;
#251 = CARTESIAN_POINT ( 'NONE',  ( 1.745740669421566993E-14, -6.123233995736767268E-16, 5.000000000000000888 ) ) ;
#252 = ORIENTED_EDGE ( 'NONE', *, *, #148, .T. ) ;
#253 = ORGANIZATION ( 'UNSPECIFIED', 'UNSPECIFIED', '' ) ;
#254 = AXIS2_PLACEMENT_3D ( 'NONE', #243, #276, #85 ) ;
#255 = ORIENTED_EDGE ( 'NONE', *, *, #199, .T. ) ;
#256 = ADVANCED_FACE ( 'NONE', ( #262 ), #162, .T. ) ;
#257 = DIRECTION ( 'NONE',  ( -3.491481338843133355E-15, 1.224646799147353207E-16, -1.000000000000000000 ) ) ;
#258 = LINE ( 'NONE', #292, #26 ) ;
#259 = CIRCLE ( 'NONE', #235, 0.1499999999999932221 ) ;
#260 = ADVANCED_BREP_SHAPE_REPRESENTATION ( '953165', ( #272, #267, #254 ), #141 ) ;
#261 = CIRCLE ( 'NONE', #71, 0.1499999999999895584 ) ;
#262 = FACE_OUTER_BOUND ( 'NONE', #61, .T. ) ;
#263 = EDGE_CURVE ( 'NONE', #195, #222, #236, .T. ) ;
#264 = DIRECTION ( 'NONE',  ( -3.491481338843133355E-15, 1.224646799147353207E-16, -1.000000000000000000 ) ) ;
#265 = PRODUCT_DEFINITION_SHAPE ( 'NONE', 'NONE',  #288 ) ;
#266 = DIRECTION ( 'NONE',  ( 4.275831445896958607E-31, 1.000000000000000000, 1.224646799147353454E-16 ) ) ;
#267 = MANIFOLD_SOLID_BREP ( 'Corps-Déplacer/Copier1[2]', #69 ) ;
#268 = DATE_AND_TIME ( #296, #313 ) ;
#269 = AXIS2_PLACEMENT_3D ( 'NONE', #98, #28, #32 ) ;
#270 =( LENGTH_UNIT ( ) NAMED_UNIT ( * ) SI_UNIT ( .MILLI., .METRE. ) );
#271 = CALENDAR_DATE ( 2021, 3, 9 ) ;
#272 = MANIFOLD_SOLID_BREP ( 'Corps-Déplacer/Copier1[1]', #57 ) ;
#273 = VERTEX_POINT ( 'NONE', #212 ) ;
#274 =( NAMED_UNIT ( * ) PLANE_ANGLE_UNIT ( ) SI_UNIT ( $, .RADIAN. ) );
#275 = AXIS2_PLACEMENT_3D ( 'NONE', #29, #318, #82 ) ;
#276 = DIRECTION ( 'NONE',  ( 0.0000000000000000000, 0.0000000000000000000, 1.000000000000000000 ) ) ;
#277 = ORIENTED_EDGE ( 'NONE', *, *, #148, .F. ) ;
#278 = FACE_OUTER_BOUND ( 'NONE', #144, .T. ) ;
#279 = CARTESIAN_POINT ( 'NONE',  ( 1.745740669421566993E-14, -6.123233995736767268E-16, 5.000000000000000888 ) ) ;
#280 = VECTOR ( 'NONE', #174, 1000.000000000000000 ) ;
#281 = AXIS2_PLACEMENT_3D ( 'NONE', #238, #181, #7 ) ;
#282 = DIRECTION ( 'NONE',  ( -3.491481338843133355E-15, 1.224646799147353207E-16, -1.000000000000000000 ) ) ;
#283 = CARTESIAN_POINT ( 'NONE',  ( 1.745740669421566993E-14, 0.1499999999999895584, 5.000000000000000888 ) ) ;
#284 = CARTESIAN_POINT ( 'NONE',  ( 0.0000000000000000000, 0.0000000000000000000, 0.0000000000000000000 ) ) ;
#285 = ADVANCED_FACE ( 'NONE', ( #3 ), #231, .T. ) ;
#286 = LOCAL_TIME ( 9, 55, 36.00000000000000000, #13 ) ;
#287 = FACE_OUTER_BOUND ( 'NONE', #207, .T. ) ;
#288 = PRODUCT_DEFINITION ( 'UNKNOWN', '', #178, #12 ) ;
#289 = CARTESIAN_POINT ( 'NONE',  ( 3.330537477742615690E-16, 0.1499999999999895584, 0.09012909285412931681 ) ) ;
#290 = CARTESIAN_POINT ( 'NONE',  ( 0.0000000000000000000, 0.0000000000000000000, 0.0000000000000000000 ) ) ;
#291 = CIRCLE ( 'NONE', #124, 0.1499999999999932221 ) ;
#292 = CARTESIAN_POINT ( 'NONE',  ( 6.413747168845004821E-32, 0.1499999999999898637, 1.836970198720905873E-17 ) ) ;
#293 = ADVANCED_FACE ( 'NONE', ( #31 ), #237, .F. ) ;
#294 = DIRECTION ( 'NONE',  ( -3.209883240645616566E-31, -1.000000000000000000, -9.035018104046499318E-17 ) ) ;
#295 = EDGE_CURVE ( 'NONE', #27, #337, #143, .T. ) ;
#296 = CALENDAR_DATE ( 2021, 3, 9 ) ;
#297 = APPROVAL_PERSON_ORGANIZATION ( #95, #118, #125 ) ;
#298 = ORIENTED_EDGE ( 'NONE', *, *, #74, .T. ) ;
#299 = DIRECTION ( 'NONE',  ( 1.798245827342167811E-15, -0.8571673007021085589, 0.5150380749100603728 ) ) ;
#300 = VERTEX_POINT ( 'NONE', #301 ) ;
#301 = CARTESIAN_POINT ( 'NONE',  ( 6.094471906479965319E-14, -0.1499999999999908074, 5.000000000000000888 ) ) ;
#302 = DATE_AND_TIME ( #220, #225 ) ;
#303 = ORIENTED_EDGE ( 'NONE', *, *, #263, .T. ) ;
#304 = SHAPE_DEFINITION_REPRESENTATION ( #265, #260 ) ;
#305 = ORIENTED_EDGE ( 'NONE', *, *, #208, .T. ) ;
#306 = APPROVAL_STATUS ( 'not_yet_approved' ) ;
#307 = CARTESIAN_POINT ( 'NONE',  ( 1.047444401652940007E-13, -3.673940397442059178E-15, 30.00000000000000000 ) ) ;
#308 = CARTESIAN_POINT ( 'NONE',  ( 1.745740669421566993E-14, -6.123233995736767268E-16, 5.000000000000000888 ) ) ;
#309 = UNCERTAINTY_MEASURE_WITH_UNIT (LENGTH_MEASURE( 1.000000000000000082E-05 ), #270, 'distance_accuracy_value', 'NONE');
#310 = ORIENTED_EDGE ( 'NONE', *, *, #16, .F. ) ;
#311 = CARTESIAN_POINT ( 'NONE',  ( 1.836970198720899710E-17, -0.1499999999999898637, -1.836970198720912344E-17 ) ) ;
#312 = ORIENTED_EDGE ( 'NONE', *, *, #44, .F. ) ;
#313 = LOCAL_TIME ( 9, 55, 36.00000000000000000, #18 ) ;
#314 = DIRECTION ( 'NONE',  ( 0.0000000000000000000, 1.000000000000000000, 0.0000000000000000000 ) ) ;
#315 = DIRECTION ( 'NONE',  ( -4.275831445896958607E-31, -1.000000000000000000, -1.224646799147353207E-16 ) ) ;
#316 = DIRECTION ( 'NONE',  ( 0.0000000000000000000, 1.000000000000000000, 0.0000000000000000000 ) ) ;
#317 = VECTOR ( 'NONE', #239, 1000.000000000000000 ) ;
#318 = DIRECTION ( 'NONE',  ( -3.491481338843133355E-15, 1.224646799147353207E-16, -1.000000000000000000 ) ) ;
#319 = CARTESIAN_POINT ( 'NONE',  ( 1.745740669421566993E-14, 1.124819836996308362E-33, 5.000000000000000888 ) ) ;
#320 = ORIENTED_EDGE ( 'NONE', *, *, #110, .F. ) ;
#321 = CIRCLE ( 'NONE', #115, 0.1499999999999901690 ) ;
#322 = APPROVAL_STATUS ( 'not_yet_approved' ) ;
#323 = CONICAL_SURFACE ( 'NONE', #14, 0.04999999999999339695, 0.7853981633974330689 ) ;
#324 = ORIENTED_EDGE ( 'NONE', *, *, #229, .T. ) ;
#325 = CC_DESIGN_PERSON_AND_ORGANIZATION_ASSIGNMENT ( #192, #146, ( #288 ) ) ;
#326 = COORDINATED_UNIVERSAL_TIME_OFFSET ( 1, 0, .AHEAD. ) ;
#327 = ORIENTED_EDGE ( 'NONE', *, *, #229, .F. ) ;
#328 = EDGE_LOOP ( 'NONE', ( #244, #36, #94, #320 ) ) ;
#329 = VECTOR ( 'NONE', #332, 1000.000000000000000 ) ;
#330 = DATE_AND_TIME ( #40, #152 ) ;
#331 = ORIENTED_EDGE ( 'NONE', *, *, #113, .T. ) ;
#332 = DIRECTION ( 'NONE',  ( -2.382254525458755335E-15, -0.7071067811865365815, -0.7071067811865584529 ) ) ;
#333 = PERSON ( 'UNSPECIFIED', 'UNSPECIFIED', 'UNSPECIFIED', ('UNSPECIFIED'), ('UNSPECIFIED'), ('UNSPECIFIED') ) ;
#334 = DIRECTION ( 'NONE',  ( -3.491481338843133355E-15, 1.224646799147353207E-16, -1.000000000000000000 ) ) ;
#335 = VECTOR ( 'NONE', #33, 1000.000000000000000 ) ;
#336 = CARTESIAN_POINT ( 'NONE',  ( 0.0000000000000000000, 0.0000000000000000000, 0.0000000000000000000 ) ) ;
#337 = VERTEX_POINT ( 'NONE', #62 ) ;
ENDSEC;
END-ISO-10303-21;
