ISO-10303-21;
HEADER;
FILE_DESCRIPTION (( 'STEP AP214' ),
    '1' );
FILE_NAME ('952942.step',
    '2024-04-04T13:05:40',
    ( '' ),
    ( '' ),
    'SwSTEP 2.0',
    'SolidWorks 2022',
    '' );
FILE_SCHEMA (( 'AUTOMOTIVE_DESIGN' ));
ENDSEC;

DATA;
#1 = AXIS2_PLACEMENT_3D ( 'NONE', #252, #284, #59 ) ;
#2 = CARTESIAN_POINT ( 'NONE',  ( 1.459439199636429616E-13, 1.599999999999978106, 42.00000000000000000 ) ) ;
#3 = CARTESIAN_POINT ( 'NONE',  ( 0.000000000000000000, 0.000000000000000000, 0.000000000000000000 ) ) ;
#4 = PRESENTATION_STYLE_ASSIGNMENT (( #120 ) ) ;
#5 = CIRCLE ( 'NONE', #279, 1.800000000000000044 ) ;
#6 = SURFACE_SIDE_STYLE ('',( #139 ) ) ;
#7 = EDGE_CURVE ( 'NONE', #23, #315, #5, .T. ) ;
#8 = COLOUR_RGB ( '',1.000000000000000000, 1.000000000000000000, 1.000000000000000000 ) ;
#9 = FACE_OUTER_BOUND ( 'NONE', #181, .T. ) ;
#10 = ORIENTED_EDGE ( 'NONE', *, *, #162, .F. ) ;
#11 = FACE_OUTER_BOUND ( 'NONE', #148, .T. ) ;
#12 = EDGE_CURVE ( 'NONE', #142, #147, #63, .T. ) ;
#13 = ORIENTED_EDGE ( 'NONE', *, *, #12, .T. ) ;
#14 = AXIS2_PLACEMENT_3D ( 'NONE', #91, #214, #178 ) ;
#15 = FACE_OUTER_BOUND ( 'NONE', #328, .T. ) ;
#16 = ORIENTED_EDGE ( 'NONE', *, *, #164, .F. ) ;
#17 = ORIENTED_EDGE ( 'NONE', *, *, #211, .F. ) ;
#18 = EDGE_CURVE ( 'NONE', #334, #176, #67, .T. ) ;
#19 = ADVANCED_FACE ( 'NONE', ( #149 ), #240, .T. ) ;
#20 = ORIENTED_EDGE ( 'NONE', *, *, #7, .F. ) ;
#21 = DIRECTION ( 'NONE',  ( 4.275831445896958607E-31, 1.000000000000000000, 1.224646799147353454E-16 ) ) ;
#22 = CARTESIAN_POINT ( 'NONE',  ( 2.890321064242941196E-14, -1.800000000000000933, 8.000000000000000000 ) ) ;
#23 = VERTEX_POINT ( 'NONE', #84 ) ;
#24 =( NAMED_UNIT ( * ) SI_UNIT ( $, .STERADIAN. ) SOLID_ANGLE_UNIT ( ) );
#25 = EDGE_CURVE ( 'NONE', #23, #43, #127, .T. ) ;
#26 = ORIENTED_EDGE ( 'NONE', *, *, #326, .F. ) ;
#27 = FILL_AREA_STYLE ('',( #314 ) ) ;
#28 = CARTESIAN_POINT ( 'NONE',  ( 8.780502649482347214E-14, -1.999999999999996669, 8.556417083418352831 ) ) ;
#29 = AXIS2_PLACEMENT_3D ( 'NONE', #42, #125, #269 ) ;
#30 = DIRECTION ( 'NONE',  ( 0.000000000000000000, 0.000000000000000000, 1.000000000000000000 ) ) ;
#31 = CIRCLE ( 'NONE', #29, 1.800000000000000044 ) ;
#32 = DIRECTION ( 'NONE',  ( 3.491481338843133355E-15, -0.000000000000000000, 1.000000000000000000 ) ) ;
#33 = ORIENTED_EDGE ( 'NONE', *, *, #165, .T. ) ;
#34 = VERTEX_POINT ( 'NONE', #22 ) ;
#35 = AXIS2_PLACEMENT_3D ( 'NONE', #199, #310, #228 ) ;
#36 = ORIENTED_EDGE ( 'NONE', *, *, #75, .T. ) ;
#37 = VERTEX_POINT ( 'NONE', #220 ) ;
#38 = EDGE_LOOP ( 'NONE', ( #65, #294, #244, #237 ) ) ;
#39 = EDGE_LOOP ( 'NONE', ( #173, #33 ) ) ;
#40 = CLOSED_SHELL ( 'NONE', ( #251, #19, #123, #150, #267, #331, #263, #209 ) ) ;
#41 = FACE_OUTER_BOUND ( 'NONE', #190, .T. ) ;
#42 = CARTESIAN_POINT ( 'NONE',  ( 2.793185071074506684E-14, -9.797174393178827630E-16, 8.000000000000000000 ) ) ;
#43 = VERTEX_POINT ( 'NONE', #168 ) ;
#44 = PRODUCT_DEFINITION_CONTEXT ( 'detailed design', #233, 'design' ) ;
#45 = DIRECTION ( 'NONE',  ( 0.000000000000000000, 1.000000000000000000, 0.000000000000000000 ) ) ;
#46 = ORIENTED_EDGE ( 'NONE', *, *, #272, .T. ) ;
#47 = AXIS2_PLACEMENT_3D ( 'NONE', #235, #160, #216 ) ;
#48 = CYLINDRICAL_SURFACE ( 'NONE', #85, 1.999999999999998224 ) ;
#49 = DIRECTION ( 'NONE',  ( -3.491481338843133355E-15, 0.000000000000000000, -1.000000000000000000 ) ) ;
#50 = SURFACE_STYLE_USAGE ( .BOTH. , #208 ) ;
#51 = CARTESIAN_POINT ( 'NONE',  ( 8.780502649482344690E-14, -2.000000000000003553, 41.59999999999999432 ) ) ;
#52 = ORIENTED_EDGE ( 'NONE', *, *, #318, .T. ) ;
#53 = ORIENTED_EDGE ( 'NONE', *, *, #302, .T. ) ;
#54 = VECTOR ( 'NONE', #218, 1000.000000000000114 ) ;
#55 = DIRECTION ( 'NONE',  ( 0.000000000000000000, 1.000000000000000000, 0.000000000000000000 ) ) ;
#56 = AXIS2_PLACEMENT_3D ( 'NONE', #134, #289, #87 ) ;
#57 = AXIS2_PLACEMENT_3D ( 'NONE', #188, #198, #69 ) ;
#58 = ADVANCED_FACE ( 'NONE', ( #41 ), #130, .T. ) ;
#59 = DIRECTION ( 'NONE',  ( -2.842170943040400743E-14, -1.000000000000000000, 0.000000000000000000 ) ) ;
#60 = LINE ( 'NONE', #264, #210 ) ;
#61 = EDGE_CURVE ( 'NONE', #34, #37, #338, .T. ) ;
#62 = ORIENTED_EDGE ( 'NONE', *, *, #129, .T. ) ;
#63 = LINE ( 'NONE', #159, #144 ) ;
#64 = SHAPE_DEFINITION_REPRESENTATION ( #206, #135 ) ;
#65 = ORIENTED_EDGE ( 'NONE', *, *, #272, .F. ) ;
#66 = ADVANCED_FACE ( 'NONE', ( #227 ), #124, .F. ) ;
#67 = CIRCLE ( 'NONE', #35, 1.599999999999983435 ) ;
#68 = MANIFOLD_SOLID_BREP ( 'Corps-Déplacer/Copier1[2]', #287 ) ;
#69 = DIRECTION ( 'NONE',  ( 0.000000000000000000, -1.000000000000000000, 0.000000000000000000 ) ) ;
#70 = EDGE_LOOP ( 'NONE', ( #94, #239, #193, #271 ) ) ;
#71 = UNCERTAINTY_MEASURE_WITH_UNIT (LENGTH_MEASURE( 1.000000000000000082E-05 ), #226, 'distance_accuracy_value', 'NONE');
#72 = CARTESIAN_POINT ( 'NONE',  ( 2.793185071074506684E-14, 0.000000000000000000, 8.000000000000000000 ) ) ;
#73 = VECTOR ( 'NONE', #108, 999.9999999999998863 ) ;
#74 = ORIENTED_EDGE ( 'NONE', *, *, #211, .T. ) ;
#75 = EDGE_CURVE ( 'NONE', #77, #142, #245, .T. ) ;
#76 = SURFACE_STYLE_FILL_AREA ( #192 ) ;
#77 = VERTEX_POINT ( 'NONE', #255 ) ;
#78 = PLANE ( 'NONE',  #246 ) ;
#79 = ORIENTED_EDGE ( 'NONE', *, *, #18, .T. ) ;
#80 = ORIENTED_EDGE ( 'NONE', *, *, #158, .T. ) ;
#81 = DIRECTION ( 'NONE',  ( 3.327098416510788793E-15, 0.3382550599108812839, 0.9410544694355827966 ) ) ;
#82 = ORIENTED_EDGE ( 'NONE', *, *, #162, .T. ) ;
#83 = FACE_OUTER_BOUND ( 'NONE', #106, .T. ) ;
#84 = CARTESIAN_POINT ( 'NONE',  ( 1.800000000000000044, 0.000000000000000000, -6.284666409917640040E-15 ) ) ;
#85 = AXIS2_PLACEMENT_3D ( 'NONE', #285, #153, #317 ) ;
#86 =( GEOMETRIC_REPRESENTATION_CONTEXT ( 3 ) GLOBAL_UNCERTAINTY_ASSIGNED_CONTEXT ( ( #71 ) ) GLOBAL_UNIT_ASSIGNED_CONTEXT ( ( #226, #340, #24 ) ) REPRESENTATION_CONTEXT ( 'NONE', 'WORKASPACE' ) );
#87 = DIRECTION ( 'NONE',  ( 4.275831445896959482E-31, 1.000000000000000000, 1.224646799147353454E-16 ) ) ;
#88 = DIRECTION ( 'NONE',  ( 1.000000000000000000, 0.000000000000000000, -3.491481338843133355E-15 ) ) ;
#89 = DIRECTION ( 'NONE',  ( -3.491481338843133355E-15, 1.224646799147353454E-16, -1.000000000000000000 ) ) ;
#90 = DIRECTION ( 'NONE',  ( -3.491481338843133355E-15, 1.224646799147353454E-16, -1.000000000000000000 ) ) ;
#91 = CARTESIAN_POINT ( 'NONE',  ( 2.793185071074506684E-14, 0.000000000000000000, 8.000000000000000000 ) ) ;
#92 = EDGE_CURVE ( 'NONE', #34, #147, #171, .T. ) ;
#93 = CONICAL_SURFACE ( 'NONE', #57, 1.800000000000000044, 0.3450620389298184043 ) ;
#94 = ORIENTED_EDGE ( 'NONE', *, *, #7, .T. ) ;
#95 = DIRECTION ( 'NONE',  ( 3.491481338843133355E-15, -0.000000000000000000, 1.000000000000000000 ) ) ;
#96 = EDGE_LOOP ( 'NONE', ( #309, #286, #80, #113 ) ) ;
#97 = MECHANICAL_DESIGN_GEOMETRIC_PRESENTATION_REPRESENTATION (  '', ( #325 ), #140 ) ;
#98 = CARTESIAN_POINT ( 'NONE',  ( 1.466422162314116009E-13, -5.143516556418883322E-15, 42.00000000000000000 ) ) ;
#99 = DIRECTION ( 'NONE',  ( 0.000000000000000000, 1.000000000000000000, 0.000000000000000000 ) ) ;
#100 = CARTESIAN_POINT ( 'NONE',  ( 1.800000000000027578, 0.000000000000000000, 7.999999999999992895 ) ) ;
#101 = CIRCLE ( 'NONE', #219, 1.799999999999998934 ) ;
#102 = MECHANICAL_DESIGN_GEOMETRIC_PRESENTATION_REPRESENTATION (  '', ( #103 ), #86 ) ;
#103 = STYLED_ITEM ( 'NONE', ( #200 ), #291 ) ;
#104 = CARTESIAN_POINT ( 'NONE',  ( 1.452456236958743223E-13, -5.094530684452989105E-15, 41.59999999999999432 ) ) ;
#105 = PRODUCT_RELATED_PRODUCT_CATEGORY ( 'part', '', ( #107 ) ) ;
#106 = EDGE_LOOP ( 'NONE', ( #36, #13, #343, #10 ) ) ;
#107 = PRODUCT ( '952942', '952942', '', ( #261 ) ) ;
#108 = DIRECTION ( 'NONE',  ( 3.285674118869262999E-15, -0.3382550599108815059, 0.9410544694355826856 ) ) ;
#109 = FILL_AREA_STYLE_COLOUR ( '', #151 ) ;
#110 = EDGE_LOOP ( 'NONE', ( #20, #17 ) ) ;
#111 = CARTESIAN_POINT ( 'NONE',  ( 2.987457057411376340E-14, -1.047858879337801990E-15, 8.556417083418352831 ) ) ;
#112 = DIRECTION ( 'NONE',  ( -3.491481338843133355E-15, 1.224646799147353454E-16, -1.000000000000000000 ) ) ;
#113 = ORIENTED_EDGE ( 'NONE', *, *, #92, .F. ) ;
#114 = CONICAL_SURFACE ( 'NONE', #163, 1.999999999999998224, 0.7853981633974528309 ) ;
#115 = FILL_AREA_STYLE_COLOUR ( '', #8 ) ;
#116 = CYLINDRICAL_SURFACE ( 'NONE', #14, 1.799999999999999600 ) ;
#117 =( LENGTH_UNIT ( ) NAMED_UNIT ( * ) SI_UNIT ( .MILLI., .METRE. ) );
#118 = AXIS2_PLACEMENT_3D ( 'NONE', #207, #89, #55 ) ;
#119 = AXIS2_PLACEMENT_3D ( 'NONE', #194, #277, #128 ) ;
#120 = SURFACE_STYLE_USAGE ( .BOTH. , #6 ) ;
#121 = ORIENTED_EDGE ( 'NONE', *, *, #61, .T. ) ;
#122 = AXIS2_PLACEMENT_3D ( 'NONE', #3, #266, #321 ) ;
#123 = ADVANCED_FACE ( 'NONE', ( #83 ), #48, .T. ) ;
#124 = PLANE ( 'NONE',  #167 ) ;
#125 = DIRECTION ( 'NONE',  ( -3.491481338843133355E-15, 1.224646799147353454E-16, -1.000000000000000000 ) ) ;
#126 = CARTESIAN_POINT ( 'NONE',  ( 2.793185071074506684E-14, -9.797174393178827630E-16, 8.000000000000000000 ) ) ;
#127 = LINE ( 'NONE', #100, #132 ) ;
#128 = DIRECTION ( 'NONE',  ( 0.000000000000000000, -1.000000000000000000, 0.000000000000000000 ) ) ;
#129 = EDGE_CURVE ( 'NONE', #142, #77, #182, .T. ) ;
#130 = CYLINDRICAL_SURFACE ( 'NONE', #330, 1.799999999999999600 ) ;
#131 = SURFACE_SIDE_STYLE ('',( #76 ) ) ;
#132 = VECTOR ( 'NONE', #274, 1000.000000000000000 ) ;
#133 = PLANE ( 'NONE',  #56 ) ;
#134 = CARTESIAN_POINT ( 'NONE',  ( 2.793185071074506684E-14, 1.799999999999998934, 8.000000000000000000 ) ) ;
#135 = ADVANCED_BREP_SHAPE_REPRESENTATION ( '952942', ( #291, #68, #257 ), #161 ) ;
#136 = AXIS2_PLACEMENT_3D ( 'NONE', #152, #250, #21 ) ;
#137 = DIRECTION ( 'NONE',  ( 3.491481338843133355E-15, -0.000000000000000000, 1.000000000000000000 ) ) ;
#138 =( NAMED_UNIT ( * ) PLANE_ANGLE_UNIT ( ) SI_UNIT ( $, .RADIAN. ) );
#139 = SURFACE_STYLE_FILL_AREA ( #324 ) ;
#140 =( GEOMETRIC_REPRESENTATION_CONTEXT ( 3 ) GLOBAL_UNCERTAINTY_ASSIGNED_CONTEXT ( ( #283 ) ) GLOBAL_UNIT_ASSIGNED_CONTEXT ( ( #117, #213, #180 ) ) REPRESENTATION_CONTEXT ( 'NONE', 'WORKASPACE' ) );
#141 = DIRECTION ( 'NONE',  ( 1.000000000000000000, 0.000000000000000000, -3.491481338843133355E-15 ) ) ;
#142 = VERTEX_POINT ( 'NONE', #51 ) ;
#143 = DIRECTION ( 'NONE',  ( -3.491481338843133355E-15, 1.224646799147369477E-16, -1.000000000000000000 ) ) ;
#144 = VECTOR ( 'NONE', #146, 1000.000000000000000 ) ;
#145 = PRODUCT_DEFINITION_FORMATION_WITH_SPECIFIED_SOURCE ( 'ANY', '', #107, .NOT_KNOWN. ) ;
#146 = DIRECTION ( 'NONE',  ( -3.491481338843133355E-15, 1.224646799147353454E-16, -1.000000000000000000 ) ) ;
#147 = VERTEX_POINT ( 'NONE', #28 ) ;
#148 = EDGE_LOOP ( 'NONE', ( #26, #300, #203, #52 ) ) ;
#149 = FACE_OUTER_BOUND ( 'NONE', #96, .T. ) ;
#150 = ADVANCED_FACE ( 'NONE', ( #311 ), #133, .T. ) ;
#151 = COLOUR_RGB ( '',1.000000000000000000, 1.000000000000000000, 1.000000000000000000 ) ;
#152 = CARTESIAN_POINT ( 'NONE',  ( 0.000000000000000000, 0.000000000000000000, 0.000000000000000000 ) ) ;
#153 = DIRECTION ( 'NONE',  ( -3.491481338843133355E-15, 1.224646799147353454E-16, -1.000000000000000000 ) ) ;
#154 = PRESENTATION_LAYER_ASSIGNMENT (  '', '', ( #174 ) ) ;
#155 = ORIENTED_EDGE ( 'NONE', *, *, #318, .F. ) ;
#156 = DIRECTION ( 'NONE',  ( 1.000000000000000000, 0.000000000000000000, -3.854941057726240267E-15 ) ) ;
#157 = PRESENTATION_STYLE_ASSIGNMENT (( #169 ) ) ;
#158 = EDGE_CURVE ( 'NONE', #332, #147, #256, .T. ) ;
#159 = CARTESIAN_POINT ( 'NONE',  ( 2.449293598294696061E-16, -1.999999999999998224, -2.449293598294712824E-16 ) ) ;
#160 = DIRECTION ( 'NONE',  ( -3.491481338843133355E-15, 1.224646799147369477E-16, -1.000000000000000000 ) ) ;
#161 =( GEOMETRIC_REPRESENTATION_CONTEXT ( 3 ) GLOBAL_UNCERTAINTY_ASSIGNED_CONTEXT ( ( #316 ) ) GLOBAL_UNIT_ASSIGNED_CONTEXT ( ( #186, #295, #177 ) ) REPRESENTATION_CONTEXT ( 'NONE', 'WORKASPACE' ) );
#162 = EDGE_CURVE ( 'NONE', #77, #332, #258, .T. ) ;
#163 = AXIS2_PLACEMENT_3D ( 'NONE', #104, #143, #99 ) ;
#164 = EDGE_CURVE ( 'NONE', #176, #142, #262, .T. ) ;
#165 = EDGE_CURVE ( 'NONE', #205, #43, #101, .T. ) ;
#166 = FACE_OUTER_BOUND ( 'NONE', #225, .T. ) ;
#167 = AXIS2_PLACEMENT_3D ( 'NONE', #202, #49, #336 ) ;
#168 = CARTESIAN_POINT ( 'NONE',  ( 1.800000000000026912, 0.000000000000000000, 7.999999999999992895 ) ) ;
#169 = SURFACE_STYLE_USAGE ( .BOTH. , #131 ) ;
#170 = UNCERTAINTY_MEASURE_WITH_UNIT (LENGTH_MEASURE( 1.000000000000000082E-05 ), #265, 'distance_accuracy_value', 'NONE');
#171 = LINE ( 'NONE', #230, #73 ) ;
#172 = CARTESIAN_POINT ( 'NONE',  ( 1.452456236958743223E-13, 1.999999999999993117, 41.59999999999999432 ) ) ;
#173 = ORIENTED_EDGE ( 'NONE', *, *, #234, .T. ) ;
#174 = STYLED_ITEM ( 'NONE', ( #157 ), #68 ) ;
#175 = CARTESIAN_POINT ( 'NONE',  ( 2.815228713459159200E-14, 1.799999999999998934, 8.000000000000000000 ) ) ;
#176 = VERTEX_POINT ( 'NONE', #296 ) ;
#177 =( NAMED_UNIT ( * ) SI_UNIT ( $, .STERADIAN. ) SOLID_ANGLE_UNIT ( ) );
#178 = DIRECTION ( 'NONE',  ( 1.000000000000000000, 0.000000000000000000, -3.854941057726238689E-15 ) ) ;
#179 = CARTESIAN_POINT ( 'NONE',  ( 1.454905530557037926E-13, -2.000000000000003553, 41.59999999999999432 ) ) ;
#180 =( NAMED_UNIT ( * ) SI_UNIT ( $, .STERADIAN. ) SOLID_ANGLE_UNIT ( ) );
#181 = EDGE_LOOP ( 'NONE', ( #16, #201, #53, #231 ) ) ;
#182 = CIRCLE ( 'NONE', #1, 1.999999999999998224 ) ;
#183 = DIRECTION ( 'NONE',  ( 1.000000000000000000, 0.000000000000000000, 0.000000000000000000 ) ) ;
#184 =( NAMED_UNIT ( * ) SI_UNIT ( $, .STERADIAN. ) SOLID_ANGLE_UNIT ( ) );
#185 = DIRECTION ( 'NONE',  ( 3.491481338843133355E-15, -0.000000000000000000, 1.000000000000000000 ) ) ;
#186 =( LENGTH_UNIT ( ) NAMED_UNIT ( * ) SI_UNIT ( .MILLI., .METRE. ) );
#187 = CARTESIAN_POINT ( 'NONE',  ( -1.799999999999970957, 2.204364238465234590E-16, 8.000000000000007105 ) ) ;
#188 = CARTESIAN_POINT ( 'NONE',  ( 2.793185071074506684E-14, -9.797174393178827630E-16, 8.000000000000000000 ) ) ;
#189 = VECTOR ( 'NONE', #319, 1000.000000000000114 ) ;
#190 = EDGE_LOOP ( 'NONE', ( #297, #74, #224, #322 ) ) ;
#191 = DIRECTION ( 'NONE',  ( -4.275831445896959482E-31, -1.000000000000000000, -1.224646799147353454E-16 ) ) ;
#192 = FILL_AREA_STYLE ('',( #109 ) ) ;
#193 = ORIENTED_EDGE ( 'NONE', *, *, #234, .F. ) ;
#194 = CARTESIAN_POINT ( 'NONE',  ( 1.466422162314116009E-13, -5.143516556418884900E-15, 42.00000000000000000 ) ) ;
#195 = AXIS2_PLACEMENT_3D ( 'NONE', #126, #247, #45 ) ;
#196 = VECTOR ( 'NONE', #112, 1000.000000000000000 ) ;
#197 = PRESENTATION_LAYER_ASSIGNMENT (  '', '', ( #325 ) ) ;
#198 = DIRECTION ( 'NONE',  ( 3.491481338843133355E-15, -1.224646799147353454E-16, 1.000000000000000000 ) ) ;
#199 = CARTESIAN_POINT ( 'NONE',  ( 1.466422162314116009E-13, -5.143516556418884900E-15, 42.00000000000000000 ) ) ;
#200 = PRESENTATION_STYLE_ASSIGNMENT (( #50 ) ) ;
#201 = ORIENTED_EDGE ( 'NONE', *, *, #18, .F. ) ;
#202 = CARTESIAN_POINT ( 'NONE',  ( 2.793185071074506684E-14, 1.799999999999998934, 8.000000000000000000 ) ) ;
#203 = ORIENTED_EDGE ( 'NONE', *, *, #92, .T. ) ;
#204 = DIRECTION ( 'NONE',  ( 2.930988785010413267E-14, -1.000000000000000000, 0.000000000000000000 ) ) ;
#205 = VERTEX_POINT ( 'NONE', #187 ) ;
#206 = PRODUCT_DEFINITION_SHAPE ( 'NONE', 'NONE',  #293 ) ;
#207 = CARTESIAN_POINT ( 'NONE',  ( 2.987457057411376340E-14, -1.047858879337801990E-15, 8.556417083418352831 ) ) ;
#208 = SURFACE_SIDE_STYLE ('',( #282 ) ) ;
#209 = ADVANCED_FACE ( 'NONE', ( #9 ), #320, .T. ) ;
#210 = VECTOR ( 'NONE', #32, 1000.000000000000000 ) ;
#211 = EDGE_CURVE ( 'NONE', #315, #23, #260, .T. ) ;
#212 = CARTESIAN_POINT ( 'NONE',  ( 0.000000000000000000, 0.000000000000000000, 0.000000000000000000 ) ) ;
#213 =( NAMED_UNIT ( * ) PLANE_ANGLE_UNIT ( ) SI_UNIT ( $, .RADIAN. ) );
#214 = DIRECTION ( 'NONE',  ( 3.491481338843133355E-15, -0.000000000000000000, 1.000000000000000000 ) ) ;
#215 = MECHANICAL_DESIGN_GEOMETRIC_PRESENTATION_REPRESENTATION (  '', ( #174 ), #303 ) ;
#216 = DIRECTION ( 'NONE',  ( 0.000000000000000000, 1.000000000000000000, 0.000000000000000000 ) ) ;
#217 = CARTESIAN_POINT ( 'NONE',  ( 0.000000000000000000, 0.000000000000000000, 0.000000000000000000 ) ) ;
#218 = DIRECTION ( 'NONE',  ( -2.382254525458704453E-15, -0.7071067811865506814, -0.7071067811865443531 ) ) ;
#219 = AXIS2_PLACEMENT_3D ( 'NONE', #243, #137, #156 ) ;
#220 = CARTESIAN_POINT ( 'NONE',  ( 2.913589353426741127E-14, 1.799999999999998934, 8.000000000000000000 ) ) ;
#221 = ADVANCED_FACE ( 'NONE', ( #268 ), #116, .T. ) ;
#222 = AXIS2_PLACEMENT_3D ( 'NONE', #329, #335, #204 ) ;
#223 = AXIS2_PLACEMENT_3D ( 'NONE', #298, #95, #292 ) ;
#224 = ORIENTED_EDGE ( 'NONE', *, *, #25, .T. ) ;
#225 = EDGE_LOOP ( 'NONE', ( #313, #62, #82, #155 ) ) ;
#226 =( LENGTH_UNIT ( ) NAMED_UNIT ( * ) SI_UNIT ( .MILLI., .METRE. ) );
#227 = FACE_OUTER_BOUND ( 'NONE', #39, .T. ) ;
#228 = DIRECTION ( 'NONE',  ( 0.000000000000000000, -1.000000000000000000, 0.000000000000000000 ) ) ;
#229 = FACE_OUTER_BOUND ( 'NONE', #110, .T. ) ;
#230 = CARTESIAN_POINT ( 'NONE',  ( 2.793185071074506684E-14, -1.800000000000000933, 8.000000000000000000 ) ) ;
#231 = ORIENTED_EDGE ( 'NONE', *, *, #129, .F. ) ;
#232 = DIRECTION ( 'NONE',  ( 0.000000000000000000, 1.000000000000000000, 0.000000000000000000 ) ) ;
#233 = APPLICATION_CONTEXT ( 'automotive_design' ) ;
#234 = EDGE_CURVE ( 'NONE', #43, #205, #312, .T. ) ;
#235 = CARTESIAN_POINT ( 'NONE',  ( 1.452456236958743223E-13, -5.094530684452989105E-15, 41.59999999999999432 ) ) ;
#236 = EDGE_CURVE ( 'NONE', #315, #205, #60, .T. ) ;
#237 = ORIENTED_EDGE ( 'NONE', *, *, #302, .F. ) ;
#238 = CARTESIAN_POINT ( 'NONE',  ( 2.987457057411376340E-14, 1.999999999999994893, 8.556417083418352831 ) ) ;
#239 = ORIENTED_EDGE ( 'NONE', *, *, #236, .T. ) ;
#240 = CONICAL_SURFACE ( 'NONE', #270, 1.800000000000000044, 0.3450620389298184043 ) ;
#241 = PRESENTATION_LAYER_ASSIGNMENT (  '', '', ( #103 ) ) ;
#242 = CIRCLE ( 'NONE', #119, 1.599999999999983435 ) ;
#243 = CARTESIAN_POINT ( 'NONE',  ( 2.793185071074506684E-14, 0.000000000000000000, 8.000000000000000000 ) ) ;
#244 = ORIENTED_EDGE ( 'NONE', *, *, #75, .F. ) ;
#245 = CIRCLE ( 'NONE', #222, 1.999999999999998224 ) ;
#246 = AXIS2_PLACEMENT_3D ( 'NONE', #98, #327, #191 ) ;
#247 = DIRECTION ( 'NONE',  ( -3.491481338843133355E-15, 1.224646799147353454E-16, -1.000000000000000000 ) ) ;
#248 = VECTOR ( 'NONE', #81, 1000.000000000000114 ) ;
#249 = CARTESIAN_POINT ( 'NONE',  ( 2.793185071074506684E-14, -9.797174393178827630E-16, 8.000000000000000000 ) ) ;
#250 = DIRECTION ( 'NONE',  ( -3.491481338843133355E-15, 1.224646799147353454E-16, -1.000000000000000000 ) ) ;
#251 = ADVANCED_FACE ( 'NONE', ( #306 ), #114, .T. ) ;
#252 = CARTESIAN_POINT ( 'NONE',  ( 1.452456236958743223E-13, -5.094530684452989105E-15, 41.59999999999999432 ) ) ;
#253 = DIRECTION ( 'NONE',  ( 3.491481338843133355E-15, -1.224646799147353454E-16, 1.000000000000000000 ) ) ;
#254 = CARTESIAN_POINT ( 'NONE',  ( -1.800000000000000044, 2.204364238465252832E-16, 6.284666409917640040E-15 ) ) ;
#255 = CARTESIAN_POINT ( 'NONE',  ( 8.756009713499403971E-14, 1.999999999999993117, 41.59999999999999432 ) ) ;
#256 = CIRCLE ( 'NONE', #118, 1.999999999999995781 ) ;
#257 = AXIS2_PLACEMENT_3D ( 'NONE', #212, #30, #183 ) ;
#258 = LINE ( 'NONE', #342, #196 ) ;
#259 = EDGE_CURVE ( 'NONE', #37, #34, #31, .T. ) ;
#260 = CIRCLE ( 'NONE', #122, 1.800000000000000044 ) ;
#261 = PRODUCT_CONTEXT ( 'NONE', #290, 'mechanical' ) ;
#262 = LINE ( 'NONE', #179, #54 ) ;
#263 = ADVANCED_FACE ( 'NONE', ( #11 ), #93, .T. ) ;
#264 = CARTESIAN_POINT ( 'NONE',  ( -1.799999999999971623, 2.204364238465235083E-16, 8.000000000000007105 ) ) ;
#265 =( LENGTH_UNIT ( ) NAMED_UNIT ( * ) SI_UNIT ( .MILLI., .METRE. ) );
#266 = DIRECTION ( 'NONE',  ( 3.491481338843133355E-15, -0.000000000000000000, 1.000000000000000000 ) ) ;
#267 = ADVANCED_FACE ( 'NONE', ( #15 ), #78, .T. ) ;
#268 = FACE_OUTER_BOUND ( 'NONE', #70, .T. ) ;
#269 = DIRECTION ( 'NONE',  ( 0.000000000000000000, 1.000000000000000000, 0.000000000000000000 ) ) ;
#270 = AXIS2_PLACEMENT_3D ( 'NONE', #249, #253, #307 ) ;
#271 = ORIENTED_EDGE ( 'NONE', *, *, #25, .F. ) ;
#272 = EDGE_CURVE ( 'NONE', #176, #334, #242, .T. ) ;
#273 = AXIS2_PLACEMENT_3D ( 'NONE', #111, #90, #232 ) ;
#274 = DIRECTION ( 'NONE',  ( 3.491481338843133355E-15, -0.000000000000000000, 1.000000000000000000 ) ) ;
#275 = EDGE_LOOP ( 'NONE', ( #121, #301 ) ) ;
#276 = DIRECTION ( 'NONE',  ( 3.491481338843133355E-15, -0.000000000000000000, 1.000000000000000000 ) ) ;
#277 = DIRECTION ( 'NONE',  ( 3.491481338843133355E-15, -1.224646799147353454E-16, 1.000000000000000000 ) ) ;
#278 = CYLINDRICAL_SURFACE ( 'NONE', #136, 1.999999999999998224 ) ;
#279 = AXIS2_PLACEMENT_3D ( 'NONE', #217, #185, #141 ) ;
#280 = AXIS2_PLACEMENT_3D ( 'NONE', #308, #337, #88 ) ;
#281 = DIRECTION ( 'NONE',  ( 1.000000000000000000, 0.000000000000000000, -3.854941057726238689E-15 ) ) ;
#282 = SURFACE_STYLE_FILL_AREA ( #27 ) ;
#283 = UNCERTAINTY_MEASURE_WITH_UNIT (LENGTH_MEASURE( 1.000000000000000082E-05 ), #117, 'distance_accuracy_value', 'NONE');
#284 = DIRECTION ( 'NONE',  ( -3.491481338843133355E-15, 1.224646799147369477E-16, -1.000000000000000000 ) ) ;
#285 = CARTESIAN_POINT ( 'NONE',  ( 0.000000000000000000, 0.000000000000000000, 0.000000000000000000 ) ) ;
#286 = ORIENTED_EDGE ( 'NONE', *, *, #326, .T. ) ;
#287 = CLOSED_SHELL ( 'NONE', ( #221, #58, #66, #305 ) ) ;
#288 = PLANE ( 'NONE',  #280 ) ;
#289 = DIRECTION ( 'NONE',  ( -3.491481338843133355E-15, 1.224646799147353454E-16, -1.000000000000000000 ) ) ;
#290 = APPLICATION_CONTEXT ( 'automotive_design' ) ;
#291 = MANIFOLD_SOLID_BREP ( 'Corps-Déplacer/Copier1[1]', #40 ) ;
#292 = DIRECTION ( 'NONE',  ( 1.000000000000000000, 0.000000000000000000, -3.854941057726240267E-15 ) ) ;
#293 = PRODUCT_DEFINITION ( 'UNKNOWN', '', #145, #44 ) ;
#294 = ORIENTED_EDGE ( 'NONE', *, *, #164, .T. ) ;
#295 =( NAMED_UNIT ( * ) PLANE_ANGLE_UNIT ( ) SI_UNIT ( $, .RADIAN. ) );
#296 = CARTESIAN_POINT ( 'NONE',  ( 1.461643563874894899E-13, -1.599999999999988542, 42.00000000000000000 ) ) ;
#297 = ORIENTED_EDGE ( 'NONE', *, *, #236, .F. ) ;
#298 = CARTESIAN_POINT ( 'NONE',  ( 2.793185071074506684E-14, 0.000000000000000000, 8.000000000000000000 ) ) ;
#299 = APPLICATION_PROTOCOL_DEFINITION ( 'draft international standard', 'automotive_design', 1998, #290 ) ;
#300 = ORIENTED_EDGE ( 'NONE', *, *, #61, .F. ) ;
#301 = ORIENTED_EDGE ( 'NONE', *, *, #259, .T. ) ;
#302 = EDGE_CURVE ( 'NONE', #334, #77, #333, .T. ) ;
#303 =( GEOMETRIC_REPRESENTATION_CONTEXT ( 3 ) GLOBAL_UNCERTAINTY_ASSIGNED_CONTEXT ( ( #170 ) ) GLOBAL_UNIT_ASSIGNED_CONTEXT ( ( #265, #138, #184 ) ) REPRESENTATION_CONTEXT ( 'NONE', 'WORKASPACE' ) );
#304 = COLOUR_RGB ( '',1.000000000000000000, 1.000000000000000000, 1.000000000000000000 ) ;
#305 = ADVANCED_FACE ( 'NONE', ( #229 ), #288, .F. ) ;
#306 = FACE_OUTER_BOUND ( 'NONE', #38, .T. ) ;
#307 = DIRECTION ( 'NONE',  ( 0.000000000000000000, -1.000000000000000000, 0.000000000000000000 ) ) ;
#308 = CARTESIAN_POINT ( 'NONE',  ( 6.413747168845441632E-32, 1.800000000000000044, 1.836970198721030674E-17 ) ) ;
#309 = ORIENTED_EDGE ( 'NONE', *, *, #259, .F. ) ;
#310 = DIRECTION ( 'NONE',  ( 3.491481338843133355E-15, -1.224646799147353454E-16, 1.000000000000000000 ) ) ;
#311 = FACE_OUTER_BOUND ( 'NONE', #275, .T. ) ;
#312 = CIRCLE ( 'NONE', #223, 1.799999999999998934 ) ;
#313 = ORIENTED_EDGE ( 'NONE', *, *, #12, .F. ) ;
#314 = FILL_AREA_STYLE_COLOUR ( '', #304 ) ;
#315 = VERTEX_POINT ( 'NONE', #254 ) ;
#316 = UNCERTAINTY_MEASURE_WITH_UNIT (LENGTH_MEASURE( 1.000000000000000082E-05 ), #186, 'distance_accuracy_value', 'NONE');
#317 = DIRECTION ( 'NONE',  ( 4.275831445896958607E-31, 1.000000000000000000, 1.224646799147353454E-16 ) ) ;
#318 = EDGE_CURVE ( 'NONE', #147, #332, #339, .T. ) ;
#319 = DIRECTION ( 'NONE',  ( -2.468850131082253511E-15, 0.7071067811865507924, -0.7071067811865441310 ) ) ;
#320 = CONICAL_SURFACE ( 'NONE', #47, 1.999999999999998224, 0.7853981633974528309 ) ;
#321 = DIRECTION ( 'NONE',  ( 1.000000000000000000, 0.000000000000000000, -3.491481338843133355E-15 ) ) ;
#322 = ORIENTED_EDGE ( 'NONE', *, *, #165, .F. ) ;
#323 = APPLICATION_PROTOCOL_DEFINITION ( 'draft international standard', 'automotive_design', 1998, #233 ) ;
#324 = FILL_AREA_STYLE ('',( #115 ) ) ;
#325 = STYLED_ITEM ( 'NONE', ( #4 ), #135 ) ;
#326 = EDGE_CURVE ( 'NONE', #37, #332, #341, .T. ) ;
#327 = DIRECTION ( 'NONE',  ( 3.491481338843133355E-15, -1.224646799147353454E-16, 1.000000000000000000 ) ) ;
#328 = EDGE_LOOP ( 'NONE', ( #79, #46 ) ) ;
#329 = CARTESIAN_POINT ( 'NONE',  ( 1.452456236958743223E-13, -5.094530684452989105E-15, 41.59999999999999432 ) ) ;
#330 = AXIS2_PLACEMENT_3D ( 'NONE', #72, #276, #281 ) ;
#331 = ADVANCED_FACE ( 'NONE', ( #166 ), #278, .T. ) ;
#332 = VERTEX_POINT ( 'NONE', #238 ) ;
#333 = LINE ( 'NONE', #172, #189 ) ;
#334 = VERTEX_POINT ( 'NONE', #2 ) ;
#335 = DIRECTION ( 'NONE',  ( -3.491481338843133355E-15, 1.224646799147369477E-16, -1.000000000000000000 ) ) ;
#336 = DIRECTION ( 'NONE',  ( -1.000000000000000000, 0.000000000000000000, 3.491481338843133355E-15 ) ) ;
#337 = DIRECTION ( 'NONE',  ( 3.491481338843133355E-15, -0.000000000000000000, 1.000000000000000000 ) ) ;
#338 = CIRCLE ( 'NONE', #195, 1.800000000000000044 ) ;
#339 = CIRCLE ( 'NONE', #273, 1.999999999999995781 ) ;
#340 =( NAMED_UNIT ( * ) PLANE_ANGLE_UNIT ( ) SI_UNIT ( $, .RADIAN. ) );
#341 = LINE ( 'NONE', #175, #248 ) ;
#342 = CARTESIAN_POINT ( 'NONE',  ( 8.551662891793910207E-31, 1.999999999999998224, 2.449293598294704935E-16 ) ) ;
#343 = ORIENTED_EDGE ( 'NONE', *, *, #158, .F. ) ;
ENDSEC;
END-ISO-10303-21;
