ISO-10303-21;
HEADER;
FILE_DESCRIPTION (( 'STEP AP214' ),
    '1' );
FILE_NAME ('952941.step',
    '2024-04-04T13:05:39',
    ( '' ),
    ( '' ),
    'SwSTEP 2.0',
    'SolidWorks 2022',
    '' );
FILE_SCHEMA (( 'AUTOMOTIVE_DESIGN' ));
ENDSEC;

DATA;
#1 = AXIS2_PLACEMENT_3D ( 'NONE', #75, #213, #182 ) ;
#2 = CIRCLE ( 'NONE', #153, 1.599999999999993872 ) ;
#3 = CARTESIAN_POINT ( 'NONE',  ( 4.275831445896956527E-32, 1.499999999999999778, 1.224646799147352653E-17 ) ) ;
#4 = CARTESIAN_POINT ( 'NONE',  ( 1.466422162314116009E-13, -5.143516556418884900E-15, 42.00000000000000000 ) ) ;
#5 = LINE ( 'NONE', #87, #205 ) ;
#6 = VECTOR ( 'NONE', #185, 1000.000000000000000 ) ;
#7 = AXIS2_PLACEMENT_3D ( 'NONE', #292, #28, #106 ) ;
#8 = EDGE_CURVE ( 'NONE', #204, #179, #200, .T. ) ;
#9 = AXIS2_PLACEMENT_3D ( 'NONE', #117, #36, #90 ) ;
#10 = FACE_OUTER_BOUND ( 'NONE', #299, .T. ) ;
#11 = ORIENTED_EDGE ( 'NONE', *, *, #57, .T. ) ;
#12 = EDGE_CURVE ( 'NONE', #15, #309, #155, .T. ) ;
#13 = FILL_AREA_STYLE ('',( #171 ) ) ;
#14 = AXIS2_PLACEMENT_3D ( 'NONE', #211, #101, #45 ) ;
#15 = VERTEX_POINT ( 'NONE', #201 ) ;
#16 = ORIENTED_EDGE ( 'NONE', *, *, #334, .T. ) ;
#17 = DIRECTION ( 'NONE',  ( -3.491481338843133355E-15, 1.224646799147353454E-16, -1.000000000000000000 ) ) ;
#18 = ORIENTED_EDGE ( 'NONE', *, *, #12, .T. ) ;
#19 = EDGE_CURVE ( 'NONE', #15, #246, #302, .T. ) ;
#20 = AXIS2_PLACEMENT_3D ( 'NONE', #311, #71, #284 ) ;
#21 = CARTESIAN_POINT ( 'NONE',  ( 1.466422162314116009E-13, -5.143516556418884900E-15, 42.00000000000000000 ) ) ;
#22 = DIRECTION ( 'NONE',  ( 0.000000000000000000, -1.000000000000000000, 0.000000000000000000 ) ) ;
#23 = CARTESIAN_POINT ( 'NONE',  ( 1.500000000000022649, 0.000000000000000000, 6.749999999999994671 ) ) ;
#24 = ADVANCED_FACE ( 'NONE', ( #10 ), #251, .F. ) ;
#25 = FACE_OUTER_BOUND ( 'NONE', #329, .T. ) ;
#26 = CIRCLE ( 'NONE', #66, 1.499999999999998890 ) ;
#27 = AXIS2_PLACEMENT_3D ( 'NONE', #93, #135, #119 ) ;
#28 = DIRECTION ( 'NONE',  ( 3.491481338843133355E-15, -1.224646799147353454E-16, 1.000000000000000000 ) ) ;
#29 = SURFACE_STYLE_FILL_AREA ( #163 ) ;
#30 = CYLINDRICAL_SURFACE ( 'NONE', #99, 1.999999999999998224 ) ;
#31 = CIRCLE ( 'NONE', #180, 1.999999999999998224 ) ;
#32 = CARTESIAN_POINT ( 'NONE',  ( 8.707989055557308985E-14, -1.999999999999997113, 8.141042708545896289 ) ) ;
#33 = FACE_OUTER_BOUND ( 'NONE', #110, .T. ) ;
#34 = CYLINDRICAL_SURFACE ( 'NONE', #27, 1.999999999999998224 ) ;
#35 = ORIENTED_EDGE ( 'NONE', *, *, #316, .T. ) ;
#36 = DIRECTION ( 'NONE',  ( -3.491481338843133355E-15, 0.000000000000000000, -1.000000000000000000 ) ) ;
#37 = ORIENTED_EDGE ( 'NONE', *, *, #265, .T. ) ;
#38 = ORIENTED_EDGE ( 'NONE', *, *, #8, .F. ) ;
#39 =( LENGTH_UNIT ( ) NAMED_UNIT ( * ) SI_UNIT ( .MILLI., .METRE. ) );
#40 = ORIENTED_EDGE ( 'NONE', *, *, #8, .T. ) ;
#41 = APPLICATION_PROTOCOL_DEFINITION ( 'draft international standard', 'automotive_design', 1998, #64 ) ;
#42 = ORIENTED_EDGE ( 'NONE', *, *, #19, .T. ) ;
#43 = AXIS2_PLACEMENT_3D ( 'NONE', #48, #314, #22 ) ;
#44 = ORIENTED_EDGE ( 'NONE', *, *, #332, .T. ) ;
#45 = DIRECTION ( 'NONE',  ( 0.000000000000000000, 1.000000000000000000, 0.000000000000000000 ) ) ;
#46 = ORIENTED_EDGE ( 'NONE', *, *, #265, .F. ) ;
#47 = CARTESIAN_POINT ( 'NONE',  ( 2.356749903719115015E-14, -8.266365894244636305E-16, 6.750000000000000000 ) ) ;
#48 = CARTESIAN_POINT ( 'NONE',  ( 2.356749903719115015E-14, -8.266365894244636305E-16, 6.750000000000000000 ) ) ;
#49 = CIRCLE ( 'NONE', #287, 1.499999999999999778 ) ;
#50 = EDGE_CURVE ( 'NONE', #309, #15, #207, .T. ) ;
#51 = DIRECTION ( 'NONE',  ( 3.327098416510788004E-15, 0.3382550599108817835, 0.9410544694355825746 ) ) ;
#52 =( LENGTH_UNIT ( ) NAMED_UNIT ( * ) SI_UNIT ( .MILLI., .METRE. ) );
#53 = DIRECTION ( 'NONE',  ( -3.491481338843133355E-15, 1.224646799147371450E-16, -1.000000000000000000 ) ) ;
#54 = AXIS2_PLACEMENT_3D ( 'NONE', #130, #53, #189 ) ;
#55 = CLOSED_SHELL ( 'NONE', ( #217, #259, #274, #214, #277, #173, #68, #305 ) ) ;
#56 = CARTESIAN_POINT ( 'NONE',  ( 2.356749903719115015E-14, -8.266365894244636305E-16, 6.750000000000000000 ) ) ;
#57 = EDGE_CURVE ( 'NONE', #303, #331, #232, .T. ) ;
#58 = CARTESIAN_POINT ( 'NONE',  ( 1.452456236958743476E-13, -5.094530684452989894E-15, 41.60000000000000142 ) ) ;
#59 =( LENGTH_UNIT ( ) NAMED_UNIT ( * ) SI_UNIT ( .MILLI., .METRE. ) );
#60 = CARTESIAN_POINT ( 'NONE',  ( 0.000000000000000000, 0.000000000000000000, 0.000000000000000000 ) ) ;
#61 = CIRCLE ( 'NONE', #298, 1.499999999999998890 ) ;
#62 = CARTESIAN_POINT ( 'NONE',  ( -1.499999999999975797, 1.836970198721029194E-16, 6.750000000000005329 ) ) ;
#63 = DIRECTION ( 'NONE',  ( 3.491481338843133355E-15, -0.000000000000000000, 1.000000000000000000 ) ) ;
#64 = APPLICATION_CONTEXT ( 'automotive_design' ) ;
#65 = ORIENTED_EDGE ( 'NONE', *, *, #121, .F. ) ;
#66 = AXIS2_PLACEMENT_3D ( 'NONE', #69, #174, #193 ) ;
#67 = PRESENTATION_LAYER_ASSIGNMENT (  '', '', ( #223 ) ) ;
#68 = ADVANCED_FACE ( 'NONE', ( #313 ), #325, .T. ) ;
#69 = CARTESIAN_POINT ( 'NONE',  ( 2.356749903719115015E-14, 0.000000000000000000, 6.750000000000000000 ) ) ;
#70 = ORIENTED_EDGE ( 'NONE', *, *, #168, .F. ) ;
#71 = DIRECTION ( 'NONE',  ( 3.491481338843133355E-15, -0.000000000000000000, 1.000000000000000000 ) ) ;
#72 = DIRECTION ( 'NONE',  ( 0.000000000000000000, 1.000000000000000000, 0.000000000000000000 ) ) ;
#73 = UNCERTAINTY_MEASURE_WITH_UNIT (LENGTH_MEASURE( 1.000000000000000082E-05 ), #52, 'distance_accuracy_value', 'NONE');
#74 =( NAMED_UNIT ( * ) PLANE_ANGLE_UNIT ( ) SI_UNIT ( $, .RADIAN. ) );
#75 = CARTESIAN_POINT ( 'NONE',  ( 2.356749903719115015E-14, 0.000000000000000000, 6.750000000000000000 ) ) ;
#76 = PRODUCT_DEFINITION_CONTEXT ( 'detailed design', #80, 'design' ) ;
#77 = FACE_OUTER_BOUND ( 'NONE', #202, .T. ) ;
#78 = ORIENTED_EDGE ( 'NONE', *, *, #316, .F. ) ;
#79 = SURFACE_STYLE_USAGE ( .BOTH. , #218 ) ;
#80 = APPLICATION_CONTEXT ( 'automotive_design' ) ;
#81 = SHAPE_DEFINITION_REPRESENTATION ( #194, #275 ) ;
#82 = FACE_OUTER_BOUND ( 'NONE', #157, .T. ) ;
#83 = EDGE_CURVE ( 'NONE', #96, #246, #26, .T. ) ;
#84 = AXIS2_PLACEMENT_3D ( 'NONE', #257, #98, #72 ) ;
#85 = CARTESIAN_POINT ( 'NONE',  ( 1.454905530557038179E-13, -2.000000000000003553, 41.60000000000000142 ) ) ;
#86 =( NAMED_UNIT ( * ) PLANE_ANGLE_UNIT ( ) SI_UNIT ( $, .RADIAN. ) );
#87 = CARTESIAN_POINT ( 'NONE',  ( 1.452456236958743476E-13, 1.999999999999993117, 41.60000000000000142 ) ) ;
#88 = CARTESIAN_POINT ( 'NONE',  ( 0.000000000000000000, 0.000000000000000000, 0.000000000000000000 ) ) ;
#89 = EDGE_CURVE ( 'NONE', #330, #225, #191, .T. ) ;
#90 = DIRECTION ( 'NONE',  ( -1.000000000000000000, 0.000000000000000000, 3.491481338843133355E-15 ) ) ;
#91 = EDGE_LOOP ( 'NONE', ( #40, #35 ) ) ;
#92 = MECHANICAL_DESIGN_GEOMETRIC_PRESENTATION_REPRESENTATION (  '', ( #95 ), #105 ) ;
#93 = CARTESIAN_POINT ( 'NONE',  ( 0.000000000000000000, 0.000000000000000000, 0.000000000000000000 ) ) ;
#94 = ORIENTED_EDGE ( 'NONE', *, *, #229, .T. ) ;
#95 = STYLED_ITEM ( 'NONE', ( #216 ), #286 ) ;
#96 = VERTEX_POINT ( 'NONE', #220 ) ;
#97 = UNCERTAINTY_MEASURE_WITH_UNIT (LENGTH_MEASURE( 1.000000000000000082E-05 ), #59, 'distance_accuracy_value', 'NONE');
#98 = DIRECTION ( 'NONE',  ( -3.491481338843133355E-15, 1.224646799147353454E-16, -1.000000000000000000 ) ) ;
#99 = AXIS2_PLACEMENT_3D ( 'NONE', #60, #109, #115 ) ;
#100 =( LENGTH_UNIT ( ) NAMED_UNIT ( * ) SI_UNIT ( .MILLI., .METRE. ) );
#101 = DIRECTION ( 'NONE',  ( -3.491481338843133355E-15, 1.224646799147353454E-16, -1.000000000000000000 ) ) ;
#102 = EDGE_LOOP ( 'NONE', ( #18, #304, #227, #107 ) ) ;
#103 = CARTESIAN_POINT ( 'NONE',  ( 1.452456236958743476E-13, -5.094530684452989894E-15, 41.60000000000000142 ) ) ;
#104 = FILL_AREA_STYLE_COLOUR ( '', #256 ) ;
#105 =( GEOMETRIC_REPRESENTATION_CONTEXT ( 3 ) GLOBAL_UNCERTAINTY_ASSIGNED_CONTEXT ( ( #73 ) ) GLOBAL_UNIT_ASSIGNED_CONTEXT ( ( #52, #86, #247 ) ) REPRESENTATION_CONTEXT ( 'NONE', 'WORKASPACE' ) );
#106 = DIRECTION ( 'NONE',  ( -4.275831445896959482E-31, -1.000000000000000000, -1.224646799147353454E-16 ) ) ;
#107 = ORIENTED_EDGE ( 'NONE', *, *, #19, .F. ) ;
#108 = CARTESIAN_POINT ( 'NONE',  ( 8.551662891793910207E-31, 1.999999999999998224, 2.449293598294704935E-16 ) ) ;
#109 = DIRECTION ( 'NONE',  ( -3.491481338843133355E-15, 1.224646799147353454E-16, -1.000000000000000000 ) ) ;
#110 = EDGE_LOOP ( 'NONE', ( #319, #242, #16, #184 ) ) ;
#111 = CIRCLE ( 'NONE', #306, 1.999999999999998224 ) ;
#112 = PRODUCT_CONTEXT ( 'NONE', #64, 'mechanical' ) ;
#113 =( GEOMETRIC_REPRESENTATION_CONTEXT ( 3 ) GLOBAL_UNCERTAINTY_ASSIGNED_CONTEXT ( ( #255 ) ) GLOBAL_UNIT_ASSIGNED_CONTEXT ( ( #100, #74, #289 ) ) REPRESENTATION_CONTEXT ( 'NONE', 'WORKASPACE' ) );
#114 = CLOSED_SHELL ( 'NONE', ( #271, #244, #24, #327 ) ) ;
#115 = DIRECTION ( 'NONE',  ( 4.275831445896958607E-31, 1.000000000000000000, 1.224646799147353454E-16 ) ) ;
#116 =( NAMED_UNIT ( * ) PLANE_ANGLE_UNIT ( ) SI_UNIT ( $, .RADIAN. ) );
#117 = CARTESIAN_POINT ( 'NONE',  ( 2.356749903719115015E-14, 1.499999999999998890, 6.750000000000000000 ) ) ;
#118 = ORIENTED_EDGE ( 'NONE', *, *, #57, .F. ) ;
#119 = DIRECTION ( 'NONE',  ( 4.275831445896958607E-31, 1.000000000000000000, 1.224646799147353454E-16 ) ) ;
#120 = DIRECTION ( 'NONE',  ( 0.000000000000000000, 1.000000000000000000, 0.000000000000000000 ) ) ;
#121 = EDGE_CURVE ( 'NONE', #248, #225, #111, .T. ) ;
#122 = ORIENTED_EDGE ( 'NONE', *, *, #162, .T. ) ;
#123 =( GEOMETRIC_REPRESENTATION_CONTEXT ( 3 ) GLOBAL_UNCERTAINTY_ASSIGNED_CONTEXT ( ( #235 ) ) GLOBAL_UNIT_ASSIGNED_CONTEXT ( ( #39, #116, #328 ) ) REPRESENTATION_CONTEXT ( 'NONE', 'WORKASPACE' ) );
#124 = CARTESIAN_POINT ( 'NONE',  ( 1.452456236958743476E-13, -5.094530684452989894E-15, 41.60000000000000142 ) ) ;
#125 = EDGE_CURVE ( 'NONE', #149, #330, #2, .T. ) ;
#126 = CARTESIAN_POINT ( 'NONE',  ( 8.683496119574365742E-14, 1.999999999999993117, 41.60000000000000142 ) ) ;
#127 = CARTESIAN_POINT ( 'NONE',  ( 8.707989055557306461E-14, -2.000000000000003553, 41.60000000000000142 ) ) ;
#128 =( GEOMETRIC_REPRESENTATION_CONTEXT ( 3 ) GLOBAL_UNCERTAINTY_ASSIGNED_CONTEXT ( ( #97 ) ) GLOBAL_UNIT_ASSIGNED_CONTEXT ( ( #59, #134, #268 ) ) REPRESENTATION_CONTEXT ( 'NONE', 'WORKASPACE' ) );
#129 = SURFACE_STYLE_USAGE ( .BOTH. , #190 ) ;
#130 = CARTESIAN_POINT ( 'NONE',  ( 1.452456236958743476E-13, -5.094530684452989894E-15, 41.60000000000000142 ) ) ;
#131 = DIRECTION ( 'NONE',  ( -3.491481338843133355E-15, 1.224646799147353454E-16, -1.000000000000000000 ) ) ;
#132 = LINE ( 'NONE', #240, #293 ) ;
#133 = SURFACE_STYLE_FILL_AREA ( #13 ) ;
#134 =( NAMED_UNIT ( * ) PLANE_ANGLE_UNIT ( ) SI_UNIT ( $, .RADIAN. ) );
#135 = DIRECTION ( 'NONE',  ( -3.491481338843133355E-15, 1.224646799147353454E-16, -1.000000000000000000 ) ) ;
#136 = VECTOR ( 'NONE', #137, 1000.000000000000000 ) ;
#137 = DIRECTION ( 'NONE',  ( 3.491481338843133355E-15, -0.000000000000000000, 1.000000000000000000 ) ) ;
#138 = EDGE_LOOP ( 'NONE', ( #70, #254, #42, #252 ) ) ;
#139 = ORIENTED_EDGE ( 'NONE', *, *, #121, .T. ) ;
#140 = DIRECTION ( 'NONE',  ( 3.491481338843133355E-15, -0.000000000000000000, 1.000000000000000000 ) ) ;
#141 = ORIENTED_EDGE ( 'NONE', *, *, #145, .T. ) ;
#142 = PRESENTATION_LAYER_ASSIGNMENT (  '', '', ( #339 ) ) ;
#143 = ORIENTED_EDGE ( 'NONE', *, *, #125, .T. ) ;
#144 = ORIENTED_EDGE ( 'NONE', *, *, #238, .T. ) ;
#145 = EDGE_CURVE ( 'NONE', #248, #303, #317, .T. ) ;
#146 = EDGE_LOOP ( 'NONE', ( #197, #122, #141, #148 ) ) ;
#147 = DIRECTION ( 'NONE',  ( 0.000000000000000000, -1.000000000000000000, 0.000000000000000000 ) ) ;
#148 = ORIENTED_EDGE ( 'NONE', *, *, #238, .F. ) ;
#149 = VERTEX_POINT ( 'NONE', #239 ) ;
#150 = DIRECTION ( 'NONE',  ( 4.275831445896959482E-31, 1.000000000000000000, 1.224646799147353454E-16 ) ) ;
#151 = PRESENTATION_STYLE_ASSIGNMENT (( #129 ) ) ;
#152 = EDGE_LOOP ( 'NONE', ( #46, #38, #237, #144 ) ) ;
#153 = AXIS2_PLACEMENT_3D ( 'NONE', #4, #291, #212 ) ;
#154 = MECHANICAL_DESIGN_GEOMETRIC_PRESENTATION_REPRESENTATION (  '', ( #339 ), #123 ) ;
#155 = CIRCLE ( 'NONE', #181, 1.499999999999999778 ) ;
#156 = DIRECTION ( 'NONE',  ( 1.000000000000000000, 0.000000000000000000, -3.491481338843133355E-15 ) ) ;
#157 = EDGE_LOOP ( 'NONE', ( #143, #283 ) ) ;
#158 = CARTESIAN_POINT ( 'NONE',  ( 1.461643563874895152E-13, -1.599999999999998979, 42.00000000000000000 ) ) ;
#159 = CIRCLE ( 'NONE', #14, 1.999999999999996225 ) ;
#160 = DIRECTION ( 'NONE',  ( 3.491481338843133355E-15, -0.000000000000000000, 1.000000000000000000 ) ) ;
#161 = APPLICATION_PROTOCOL_DEFINITION ( 'draft international standard', 'automotive_design', 1998, #80 ) ;
#162 = EDGE_CURVE ( 'NONE', #225, #248, #31, .T. ) ;
#163 = FILL_AREA_STYLE ('',( #209 ) ) ;
#164 = CARTESIAN_POINT ( 'NONE',  ( 1.500000000000023093, 0.000000000000000000, 6.749999999999994671 ) ) ;
#165 = ORIENTED_EDGE ( 'NONE', *, *, #176, .F. ) ;
#166 = FACE_OUTER_BOUND ( 'NONE', #146, .T. ) ;
#167 = MANIFOLD_SOLID_BREP ( 'Corps-Déplacer/Copier1[1]', #55 ) ;
#168 = EDGE_CURVE ( 'NONE', #309, #96, #326, .T. ) ;
#169 = SURFACE_SIDE_STYLE ('',( #133 ) ) ;
#170 = COLOUR_RGB ( '',1.000000000000000000, 1.000000000000000000, 1.000000000000000000 ) ;
#171 = FILL_AREA_STYLE_COLOUR ( '', #226 ) ;
#172 = CARTESIAN_POINT ( 'NONE',  ( 2.356749903719115015E-14, -8.266365894244636305E-16, 6.750000000000000000 ) ) ;
#173 = ADVANCED_FACE ( 'NONE', ( #166 ), #34, .T. ) ;
#174 = DIRECTION ( 'NONE',  ( 3.491481338843133355E-15, -0.000000000000000000, 1.000000000000000000 ) ) ;
#175 = ORIENTED_EDGE ( 'NONE', *, *, #334, .F. ) ;
#176 = EDGE_CURVE ( 'NONE', #330, #149, #206, .T. ) ;
#177 = DIRECTION ( 'NONE',  ( 1.000000000000000000, 0.000000000000000000, -3.491481338843133355E-15 ) ) ;
#178 = DIRECTION ( 'NONE',  ( -3.491481338843133355E-15, 1.224646799147371450E-16, -1.000000000000000000 ) ) ;
#179 = VERTEX_POINT ( 'NONE', #231 ) ;
#180 = AXIS2_PLACEMENT_3D ( 'NONE', #103, #321, #188 ) ;
#181 = AXIS2_PLACEMENT_3D ( 'NONE', #88, #196, #296 ) ;
#182 = DIRECTION ( 'NONE',  ( 1.000000000000000000, 0.000000000000000000, -3.469446951953615767E-15 ) ) ;
#183 = ORIENTED_EDGE ( 'NONE', *, *, #281, .F. ) ;
#184 = ORIENTED_EDGE ( 'NONE', *, *, #162, .F. ) ;
#185 = DIRECTION ( 'NONE',  ( -3.491481338843133355E-15, 1.224646799147353454E-16, -1.000000000000000000 ) ) ;
#186 = CONICAL_SURFACE ( 'NONE', #198, 1.999999999999998224, 0.7853981633974485010 ) ;
#187 = LINE ( 'NONE', #288, #249 ) ;
#188 = DIRECTION ( 'NONE',  ( -2.930988785010413267E-14, -1.000000000000000000, 0.000000000000000000 ) ) ;
#189 = DIRECTION ( 'NONE',  ( 0.000000000000000000, 1.000000000000000000, 0.000000000000000000 ) ) ;
#190 = SURFACE_SIDE_STYLE ('',( #29 ) ) ;
#191 = LINE ( 'NONE', #85, #263 ) ;
#192 = PRODUCT_DEFINITION_FORMATION_WITH_SPECIFIED_SOURCE ( 'ANY', '', #310, .NOT_KNOWN. ) ;
#193 = DIRECTION ( 'NONE',  ( 1.000000000000000000, 0.000000000000000000, -3.469446951953616950E-15 ) ) ;
#194 = PRODUCT_DEFINITION_SHAPE ( 'NONE', 'NONE',  #250 ) ;
#195 = LINE ( 'NONE', #272, #312 ) ;
#196 = DIRECTION ( 'NONE',  ( 3.491481338843133355E-15, -0.000000000000000000, 1.000000000000000000 ) ) ;
#197 = ORIENTED_EDGE ( 'NONE', *, *, #332, .F. ) ;
#198 = AXIS2_PLACEMENT_3D ( 'NONE', #124, #178, #285 ) ;
#199 = CARTESIAN_POINT ( 'NONE',  ( 0.000000000000000000, 0.000000000000000000, 0.000000000000000000 ) ) ;
#200 = CIRCLE ( 'NONE', #308, 1.499999999999999778 ) ;
#201 = CARTESIAN_POINT ( 'NONE',  ( 1.499999999999999778, 0.000000000000000000, -5.237222008264699244E-15 ) ) ;
#202 = EDGE_LOOP ( 'NONE', ( #78, #37, #11, #183 ) ) ;
#203 = EDGE_LOOP ( 'NONE', ( #300, #270 ) ) ;
#204 = VERTEX_POINT ( 'NONE', #341 ) ;
#205 = VECTOR ( 'NONE', #295, 1000.000000000000000 ) ;
#206 = CIRCLE ( 'NONE', #215, 1.599999999999993872 ) ;
#207 = CIRCLE ( 'NONE', #335, 1.499999999999999778 ) ;
#208 = CYLINDRICAL_SURFACE ( 'NONE', #20, 1.499999999999999334 ) ;
#209 = FILL_AREA_STYLE_COLOUR ( '', #170 ) ;
#210 = CONICAL_SURFACE ( 'NONE', #54, 1.999999999999998224, 0.7853981633974485010 ) ;
#211 = CARTESIAN_POINT ( 'NONE',  ( 2.842429869561295464E-14, -9.969901894742632755E-16, 8.141042708545896289 ) ) ;
#212 = DIRECTION ( 'NONE',  ( 0.000000000000000000, -1.000000000000000000, 0.000000000000000000 ) ) ;
#213 = DIRECTION ( 'NONE',  ( 3.491481338843133355E-15, -0.000000000000000000, 1.000000000000000000 ) ) ;
#214 = ADVANCED_FACE ( 'NONE', ( #318 ), #234, .T. ) ;
#215 = AXIS2_PLACEMENT_3D ( 'NONE', #21, #262, #147 ) ;
#216 = PRESENTATION_STYLE_ASSIGNMENT (( #79 ) ) ;
#217 = ADVANCED_FACE ( 'NONE', ( #25 ), #186, .T. ) ;
#218 = SURFACE_SIDE_STYLE ('',( #324 ) ) ;
#219 = DIRECTION ( 'NONE',  ( 3.285674118869261816E-15, -0.3382550599108820055, 0.9410544694355824635 ) ) ;
#220 = CARTESIAN_POINT ( 'NONE',  ( -1.499999999999975353, 1.836970198721028948E-16, 6.750000000000005329 ) ) ;
#221 = DIRECTION ( 'NONE',  ( -3.491481338843133355E-15, 1.224646799147353454E-16, -1.000000000000000000 ) ) ;
#222 = AXIS2_PLACEMENT_3D ( 'NONE', #47, #261, #336 ) ;
#223 = STYLED_ITEM ( 'NONE', ( #151 ), #275 ) ;
#224 = CARTESIAN_POINT ( 'NONE',  ( 2.842429869561295464E-14, 1.999999999999995337, 8.141042708545896289 ) ) ;
#225 = VERTEX_POINT ( 'NONE', #127 ) ;
#226 = COLOUR_RGB ( '',1.000000000000000000, 1.000000000000000000, 1.000000000000000000 ) ;
#227 = ORIENTED_EDGE ( 'NONE', *, *, #229, .F. ) ;
#228 = ORIENTED_EDGE ( 'NONE', *, *, #83, .T. ) ;
#229 = EDGE_CURVE ( 'NONE', #246, #96, #61, .T. ) ;
#230 = DIRECTION ( 'NONE',  ( -3.491481338843133355E-15, 1.224646799147353454E-16, -1.000000000000000000 ) ) ;
#231 = CARTESIAN_POINT ( 'NONE',  ( 2.621021205625283733E-14, 1.499999999999998890, 6.750000000000000000 ) ) ;
#232 = CIRCLE ( 'NONE', #84, 1.999999999999996225 ) ;
#233 = DIRECTION ( 'NONE',  ( 3.019806626980425790E-14, -1.000000000000000000, 0.000000000000000000 ) ) ;
#234 = PLANE ( 'NONE',  #280 ) ;
#235 = UNCERTAINTY_MEASURE_WITH_UNIT (LENGTH_MEASURE( 1.000000000000000082E-05 ), #39, 'distance_accuracy_value', 'NONE');
#236 = FILL_AREA_STYLE ('',( #104 ) ) ;
#237 = ORIENTED_EDGE ( 'NONE', *, *, #281, .T. ) ;
#238 = EDGE_CURVE ( 'NONE', #331, #303, #159, .T. ) ;
#239 = CARTESIAN_POINT ( 'NONE',  ( 1.459439199636429616E-13, 1.599999999999988542, 42.00000000000000000 ) ) ;
#240 = CARTESIAN_POINT ( 'NONE',  ( 2.449293598294696061E-16, -1.999999999999998224, -2.449293598294712824E-16 ) ) ;
#241 = PRODUCT_RELATED_PRODUCT_CATEGORY ( 'part', '', ( #310 ) ) ;
#242 = ORIENTED_EDGE ( 'NONE', *, *, #125, .F. ) ;
#243 = PLANE ( 'NONE',  #253 ) ;
#244 = ADVANCED_FACE ( 'NONE', ( #260 ), #315, .T. ) ;
#245 = DIRECTION ( 'NONE',  ( 0.000000000000000000, 1.000000000000000000, 0.000000000000000000 ) ) ;
#246 = VERTEX_POINT ( 'NONE', #23 ) ;
#247 =( NAMED_UNIT ( * ) SI_UNIT ( $, .STERADIAN. ) SOLID_ANGLE_UNIT ( ) );
#248 = VERTEX_POINT ( 'NONE', #126 ) ;
#249 = VECTOR ( 'NONE', #51, 1000.000000000000114 ) ;
#250 = PRODUCT_DEFINITION ( 'UNKNOWN', '', #192, #76 ) ;
#251 = PLANE ( 'NONE',  #9 ) ;
#252 = ORIENTED_EDGE ( 'NONE', *, *, #83, .F. ) ;
#253 = AXIS2_PLACEMENT_3D ( 'NONE', #3, #160, #156 ) ;
#254 = ORIENTED_EDGE ( 'NONE', *, *, #50, .T. ) ;
#255 = UNCERTAINTY_MEASURE_WITH_UNIT (LENGTH_MEASURE( 1.000000000000000082E-05 ), #100, 'distance_accuracy_value', 'NONE');
#256 = COLOUR_RGB ( '',1.000000000000000000, 1.000000000000000000, 1.000000000000000000 ) ;
#257 = CARTESIAN_POINT ( 'NONE',  ( 2.842429869561295464E-14, -9.969901894742632755E-16, 8.141042708545896289 ) ) ;
#258 = CARTESIAN_POINT ( 'NONE',  ( 2.356749903719115015E-14, 0.000000000000000000, 6.750000000000000000 ) ) ;
#259 = ADVANCED_FACE ( 'NONE', ( #77 ), #307, .T. ) ;
#260 = FACE_OUTER_BOUND ( 'NONE', #138, .T. ) ;
#261 = DIRECTION ( 'NONE',  ( 3.491481338843133355E-15, -1.224646799147353454E-16, 1.000000000000000000 ) ) ;
#262 = DIRECTION ( 'NONE',  ( 3.491481338843133355E-15, -1.224646799147353454E-16, 1.000000000000000000 ) ) ;
#263 = VECTOR ( 'NONE', #266, 1000.000000000000000 ) ;
#264 = DIRECTION ( 'NONE',  ( 1.000000000000000000, 0.000000000000000000, -3.469446951953616950E-15 ) ) ;
#265 = EDGE_CURVE ( 'NONE', #179, #303, #187, .T. ) ;
#266 = DIRECTION ( 'NONE',  ( -2.382254525458715892E-15, -0.7071067811865476838, -0.7071067811865474617 ) ) ;
#267 = PLANE ( 'NONE',  #7 ) ;
#268 =( NAMED_UNIT ( * ) SI_UNIT ( $, .STERADIAN. ) SOLID_ANGLE_UNIT ( ) );
#269 = PRESENTATION_LAYER_ASSIGNMENT (  '', '', ( #95 ) ) ;
#270 = ORIENTED_EDGE ( 'NONE', *, *, #50, .F. ) ;
#271 = ADVANCED_FACE ( 'NONE', ( #337 ), #208, .T. ) ;
#272 = CARTESIAN_POINT ( 'NONE',  ( 2.356749903719115015E-14, -1.500000000000000666, 6.750000000000000000 ) ) ;
#273 = DIRECTION ( 'NONE',  ( -3.491481338843133355E-15, 1.224646799147371450E-16, -1.000000000000000000 ) ) ;
#274 = ADVANCED_FACE ( 'NONE', ( #322 ), #30, .T. ) ;
#275 = ADVANCED_BREP_SHAPE_REPRESENTATION ( '952941', ( #167, #286, #340 ), #128 ) ;
#276 = DIRECTION ( 'NONE',  ( 1.000000000000000000, 0.000000000000000000, 0.000000000000000000 ) ) ;
#277 = ADVANCED_FACE ( 'NONE', ( #82 ), #267, .T. ) ;
#278 = ORIENTED_EDGE ( 'NONE', *, *, #145, .F. ) ;
#279 = SURFACE_STYLE_USAGE ( .BOTH. , #169 ) ;
#280 = AXIS2_PLACEMENT_3D ( 'NONE', #338, #230, #150 ) ;
#281 = EDGE_CURVE ( 'NONE', #204, #331, #195, .T. ) ;
#282 = ORIENTED_EDGE ( 'NONE', *, *, #89, .T. ) ;
#283 = ORIENTED_EDGE ( 'NONE', *, *, #176, .T. ) ;
#284 = DIRECTION ( 'NONE',  ( 1.000000000000000000, 0.000000000000000000, -3.469446951953615767E-15 ) ) ;
#285 = DIRECTION ( 'NONE',  ( 0.000000000000000000, 1.000000000000000000, 0.000000000000000000 ) ) ;
#286 = MANIFOLD_SOLID_BREP ( 'Corps-Déplacer/Copier1[2]', #114 ) ;
#287 = AXIS2_PLACEMENT_3D ( 'NONE', #56, #131, #245 ) ;
#288 = CARTESIAN_POINT ( 'NONE',  ( 2.375119605706324971E-14, 1.499999999999998890, 6.750000000000000000 ) ) ;
#289 =( NAMED_UNIT ( * ) SI_UNIT ( $, .STERADIAN. ) SOLID_ANGLE_UNIT ( ) );
#290 = FACE_OUTER_BOUND ( 'NONE', #203, .T. ) ;
#291 = DIRECTION ( 'NONE',  ( 3.491481338843133355E-15, -1.224646799147353454E-16, 1.000000000000000000 ) ) ;
#292 = CARTESIAN_POINT ( 'NONE',  ( 1.466422162314116009E-13, -5.143516556418883322E-15, 42.00000000000000000 ) ) ;
#293 = VECTOR ( 'NONE', #221, 1000.000000000000000 ) ;
#294 = CARTESIAN_POINT ( 'NONE',  ( -1.499999999999999778, 1.836970198721044232E-16, 5.237222008264699244E-15 ) ) ;
#295 = DIRECTION ( 'NONE',  ( -2.468850131082264555E-15, 0.7071067811865479058, -0.7071067811865472397 ) ) ;
#296 = DIRECTION ( 'NONE',  ( 1.000000000000000000, 0.000000000000000000, -3.491481338843133355E-15 ) ) ;
#297 = CARTESIAN_POINT ( 'NONE',  ( 0.000000000000000000, 0.000000000000000000, 0.000000000000000000 ) ) ;
#298 = AXIS2_PLACEMENT_3D ( 'NONE', #258, #342, #264 ) ;
#299 = EDGE_LOOP ( 'NONE', ( #94, #228 ) ) ;
#300 = ORIENTED_EDGE ( 'NONE', *, *, #12, .F. ) ;
#301 = PRESENTATION_STYLE_ASSIGNMENT (( #279 ) ) ;
#302 = LINE ( 'NONE', #164, #136 ) ;
#303 = VERTEX_POINT ( 'NONE', #224 ) ;
#304 = ORIENTED_EDGE ( 'NONE', *, *, #168, .T. ) ;
#305 = ADVANCED_FACE ( 'NONE', ( #33 ), #210, .T. ) ;
#306 = AXIS2_PLACEMENT_3D ( 'NONE', #58, #273, #233 ) ;
#307 = CONICAL_SURFACE ( 'NONE', #43, 1.499999999999999778, 0.3450620389298190149 ) ;
#308 = AXIS2_PLACEMENT_3D ( 'NONE', #172, #17, #120 ) ;
#309 = VERTEX_POINT ( 'NONE', #294 ) ;
#310 = PRODUCT ( '952941', '952941', '', ( #112 ) ) ;
#311 = CARTESIAN_POINT ( 'NONE',  ( 2.356749903719115015E-14, 0.000000000000000000, 6.750000000000000000 ) ) ;
#312 = VECTOR ( 'NONE', #219, 1000.000000000000000 ) ;
#313 = FACE_OUTER_BOUND ( 'NONE', #152, .T. ) ;
#314 = DIRECTION ( 'NONE',  ( 3.491481338843133355E-15, -1.224646799147353454E-16, 1.000000000000000000 ) ) ;
#315 = CYLINDRICAL_SURFACE ( 'NONE', #1, 1.499999999999999334 ) ;
#316 = EDGE_CURVE ( 'NONE', #179, #204, #49, .T. ) ;
#317 = LINE ( 'NONE', #108, #6 ) ;
#318 = FACE_OUTER_BOUND ( 'NONE', #91, .T. ) ;
#319 = ORIENTED_EDGE ( 'NONE', *, *, #89, .F. ) ;
#320 = VECTOR ( 'NONE', #140, 1000.000000000000000 ) ;
#321 = DIRECTION ( 'NONE',  ( -3.491481338843133355E-15, 1.224646799147371450E-16, -1.000000000000000000 ) ) ;
#322 = FACE_OUTER_BOUND ( 'NONE', #343, .T. ) ;
#323 = DIRECTION ( 'NONE',  ( 0.000000000000000000, 0.000000000000000000, 1.000000000000000000 ) ) ;
#324 = SURFACE_STYLE_FILL_AREA ( #236 ) ;
#325 = CONICAL_SURFACE ( 'NONE', #222, 1.499999999999999778, 0.3450620389298190149 ) ;
#326 = LINE ( 'NONE', #62, #320 ) ;
#327 = ADVANCED_FACE ( 'NONE', ( #290 ), #243, .F. ) ;
#328 =( NAMED_UNIT ( * ) SI_UNIT ( $, .STERADIAN. ) SOLID_ANGLE_UNIT ( ) );
#329 = EDGE_LOOP ( 'NONE', ( #165, #282, #65, #175 ) ) ;
#330 = VERTEX_POINT ( 'NONE', #158 ) ;
#331 = VERTEX_POINT ( 'NONE', #32 ) ;
#332 = EDGE_CURVE ( 'NONE', #225, #331, #132, .T. ) ;
#333 = MECHANICAL_DESIGN_GEOMETRIC_PRESENTATION_REPRESENTATION (  '', ( #223 ), #113 ) ;
#334 = EDGE_CURVE ( 'NONE', #149, #248, #5, .T. ) ;
#335 = AXIS2_PLACEMENT_3D ( 'NONE', #297, #63, #177 ) ;
#336 = DIRECTION ( 'NONE',  ( 0.000000000000000000, -1.000000000000000000, 0.000000000000000000 ) ) ;
#337 = FACE_OUTER_BOUND ( 'NONE', #102, .T. ) ;
#338 = CARTESIAN_POINT ( 'NONE',  ( 2.356749903719115015E-14, 1.499999999999998890, 6.750000000000000000 ) ) ;
#339 = STYLED_ITEM ( 'NONE', ( #301 ), #167 ) ;
#340 = AXIS2_PLACEMENT_3D ( 'NONE', #199, #323, #276 ) ;
#341 = CARTESIAN_POINT ( 'NONE',  ( 2.599589886640205397E-14, -1.500000000000000666, 6.750000000000000000 ) ) ;
#342 = DIRECTION ( 'NONE',  ( 3.491481338843133355E-15, -0.000000000000000000, 1.000000000000000000 ) ) ;
#343 = EDGE_LOOP ( 'NONE', ( #139, #44, #118, #278 ) ) ;
ENDSEC;
END-ISO-10303-21;
