ISO-10303-21;
HEADER;
FILE_DESCRIPTION (( 'STEP AP214' ),
    '1' );
FILE_NAME ('952940.step',
    '2024-04-04T13:05:38',
    ( '' ),
    ( '' ),
    'SwSTEP 2.0',
    'SolidWorks 2022',
    '' );
FILE_SCHEMA (( 'AUTOMOTIVE_DESIGN' ));
ENDSEC;

DATA;
#1 = CONICAL_SURFACE ( 'NONE', #32, 1.499999999999995337, 0.7853981633974327359 ) ;
#2 = SURFACE_SIDE_STYLE ('',( #106 ) ) ;
#3 = DIRECTION ( 'NONE',  ( 3.327098416510788004E-15, 0.3382550599108818390, 0.9410544694355825746 ) ) ;
#4 = ORIENTED_EDGE ( 'NONE', *, *, #116, .T. ) ;
#5 = AXIS2_PLACEMENT_3D ( 'NONE', #87, #220, #10 ) ;
#6 = ADVANCED_FACE ( 'NONE', ( #238 ), #292, .T. ) ;
#7 = AXIS2_PLACEMENT_3D ( 'NONE', #174, #276, #336 ) ;
#8 = ORIENTED_EDGE ( 'NONE', *, *, #165, .F. ) ;
#9 = DIRECTION ( 'NONE',  ( 3.641531520770513453E-14, -1.000000000000000000, 0.000000000000000000 ) ) ;
#10 = DIRECTION ( 'NONE',  ( 0.000000000000000000, -1.000000000000000000, 0.000000000000000000 ) ) ;
#11 = EDGE_LOOP ( 'NONE', ( #182, #151 ) ) ;
#12 = ORIENTED_EDGE ( 'NONE', *, *, #334, .F. ) ;
#13 = EDGE_CURVE ( 'NONE', #280, #36, #63, .T. ) ;
#14 = DIRECTION ( 'NONE',  ( -3.491481338843133355E-15, 1.224646799147353207E-16, -1.000000000000000000 ) ) ;
#15 = PRODUCT_RELATED_PRODUCT_CATEGORY ( 'part', '', ( #17 ) ) ;
#16 = CLOSED_SHELL ( 'NONE', ( #118, #6, #246, #219 ) ) ;
#17 = PRODUCT ( '952940', '952940', '', ( #315 ) ) ;
#18 = DIRECTION ( 'NONE',  ( 3.491481338843133355E-15, -0.000000000000000000, 1.000000000000000000 ) ) ;
#19 = ADVANCED_FACE ( 'NONE', ( #159 ), #1, .T. ) ;
#20 = CARTESIAN_POINT ( 'NONE',  ( 0.000000000000000000, 0.000000000000000000, 0.000000000000000000 ) ) ;
#21 = PRODUCT_DEFINITION_FORMATION_WITH_SPECIFIED_SOURCE ( 'ANY', '', #17, .NOT_KNOWN. ) ;
#22 = CYLINDRICAL_SURFACE ( 'NONE', #7, 1.499999999999995337 ) ;
#23 = ADVANCED_FACE ( 'NONE', ( #257 ), #242, .T. ) ;
#24 = DIRECTION ( 'NONE',  ( -3.491481338843133355E-15, 0.000000000000000000, -1.000000000000000000 ) ) ;
#25 = CARTESIAN_POINT ( 'NONE',  ( 7.796764640610529331E-14, -1.499999999999999778, 37.69999999999998863 ) ) ;
#26 = ORIENTED_EDGE ( 'NONE', *, *, #267, .F. ) ;
#27 = CONICAL_SURFACE ( 'NONE', #307, 1.300000000000000044, 0.3450620389298190704 ) ;
#28 = VERTEX_POINT ( 'NONE', #39 ) ;
#29 = DIRECTION ( 'NONE',  ( 0.000000000000000000, -1.000000000000000000, 0.000000000000000000 ) ) ;
#30 = VERTEX_POINT ( 'NONE', #183 ) ;
#31 = ORIENTED_EDGE ( 'NONE', *, *, #166, .F. ) ;
#32 = AXIS2_PLACEMENT_3D ( 'NONE', #154, #107, #320 ) ;
#33 = ORIENTED_EDGE ( 'NONE', *, *, #160, .T. ) ;
#34 = ORIENTED_EDGE ( 'NONE', *, *, #255, .T. ) ;
#35 = CARTESIAN_POINT ( 'NONE',  ( 1.300000000000021361, 0.000000000000000000, 6.299999999999995381 ) ) ;
#36 = VERTEX_POINT ( 'NONE', #132 ) ;
#37 = AXIS2_PLACEMENT_3D ( 'NONE', #97, #169, #312 ) ;
#38 = CIRCLE ( 'NONE', #271, 1.300000000000000044 ) ;
#39 = CARTESIAN_POINT ( 'NONE',  ( -1.300000000000000044, 1.592040838891572407E-16, 4.538925740496073362E-15 ) ) ;
#40 =( GEOMETRIC_REPRESENTATION_CONTEXT ( 3 ) GLOBAL_UNCERTAINTY_ASSIGNED_CONTEXT ( ( #208 ) ) GLOBAL_UNIT_ASSIGNED_CONTEXT ( ( #80, #42, #193 ) ) REPRESENTATION_CONTEXT ( 'NONE', 'WORKASPACE' ) );
#41 =( GEOMETRIC_REPRESENTATION_CONTEXT ( 3 ) GLOBAL_UNCERTAINTY_ASSIGNED_CONTEXT ( ( #167 ) ) GLOBAL_UNIT_ASSIGNED_CONTEXT ( ( #205, #105, #127 ) ) REPRESENTATION_CONTEXT ( 'NONE', 'WORKASPACE' ) );
#42 =( NAMED_UNIT ( * ) PLANE_ANGLE_UNIT ( ) SI_UNIT ( $, .RADIAN. ) );
#43 = VERTEX_POINT ( 'NONE', #286 ) ;
#44 = FACE_OUTER_BOUND ( 'NONE', #264, .T. ) ;
#45 = CARTESIAN_POINT ( 'NONE',  ( 1.316288464743860959E-13, 1.499999999999990674, 37.69999999999998863 ) ) ;
#46 = DIRECTION ( 'NONE',  ( -2.382254525458756124E-15, -0.7071067811865364705, -0.7071067811865585639 ) ) ;
#47 = VECTOR ( 'NONE', #46, 1000.000000000000114 ) ;
#48 = CARTESIAN_POINT ( 'NONE',  ( 2.199633243471174014E-14, -1.300000000000000711, 6.299999999999999822 ) ) ;
#49 = DIRECTION ( 'NONE',  ( -3.552713678800500298E-14, -1.000000000000000000, 0.000000000000000000 ) ) ;
#50 = FACE_OUTER_BOUND ( 'NONE', #76, .T. ) ;
#51 = DIRECTION ( 'NONE',  ( -3.491481338843133355E-15, 1.224646799147353207E-16, -1.000000000000000000 ) ) ;
#52 = ADVANCED_FACE ( 'NONE', ( #318 ), #27, .T. ) ;
#53 = SURFACE_STYLE_USAGE ( .BOTH. , #121 ) ;
#54 = PRESENTATION_STYLE_ASSIGNMENT (( #211 ) ) ;
#55 = ORIENTED_EDGE ( 'NONE', *, *, #119, .F. ) ;
#56 = AXIS2_PLACEMENT_3D ( 'NONE', #226, #24, #203 ) ;
#57 = ORIENTED_EDGE ( 'NONE', *, *, #311, .F. ) ;
#58 = ADVANCED_FACE ( 'NONE', ( #110 ), #325, .T. ) ;
#59 = VERTEX_POINT ( 'NONE', #289 ) ;
#60 = MANIFOLD_SOLID_BREP ( 'Corps-Déplacer/Copier1[1]', #148 ) ;
#61 = ORIENTED_EDGE ( 'NONE', *, *, #267, .T. ) ;
#62 = DIRECTION ( 'NONE',  ( 3.491481338843133355E-15, -0.000000000000000000, 1.000000000000000000 ) ) ;
#63 = LINE ( 'NONE', #113, #248 ) ;
#64 = CARTESIAN_POINT ( 'NONE',  ( 1.321525686752125943E-13, 1.199999999999991518, 38.00000000000000000 ) ) ;
#65 = DIRECTION ( 'NONE',  ( -3.491481338843133355E-15, 1.224646799147353207E-16, -1.000000000000000000 ) ) ;
#66 =( GEOMETRIC_REPRESENTATION_CONTEXT ( 3 ) GLOBAL_UNCERTAINTY_ASSIGNED_CONTEXT ( ( #73 ) ) GLOBAL_UNIT_ASSIGNED_CONTEXT ( ( #314, #158, #79 ) ) REPRESENTATION_CONTEXT ( 'NONE', 'WORKASPACE' ) );
#67 = CARTESIAN_POINT ( 'NONE',  ( 2.199633243471174014E-14, 1.299999999999999156, 6.299999999999999822 ) ) ;
#68 = EDGE_CURVE ( 'NONE', #234, #225, #285, .T. ) ;
#69 = DIRECTION ( 'NONE',  ( 1.000000000000000000, 0.000000000000000000, -3.491481338843133355E-15 ) ) ;
#70 = ADVANCED_BREP_SHAPE_REPRESENTATION ( '952940', ( #60, #275, #37 ), #66 ) ;
#71 = LINE ( 'NONE', #331, #152 ) ;
#72 = CARTESIAN_POINT ( 'NONE',  ( 1.316288464743860959E-13, -4.616918432785520292E-15, 37.69999999999998863 ) ) ;
#73 = UNCERTAINTY_MEASURE_WITH_UNIT (LENGTH_MEASURE( 1.000000000000000082E-05 ), #314, 'distance_accuracy_value', 'NONE');
#74 = DIRECTION ( 'NONE',  ( 4.275831445896958607E-31, 1.000000000000000000, 1.224646799147353207E-16 ) ) ;
#75 = AXIS2_PLACEMENT_3D ( 'NONE', #218, #164, #269 ) ;
#76 = EDGE_LOOP ( 'NONE', ( #213, #33 ) ) ;
#77 = PRODUCT_DEFINITION ( 'UNKNOWN', '', #21, #272 ) ;
#78 =( NAMED_UNIT ( * ) SI_UNIT ( $, .STERADIAN. ) SOLID_ANGLE_UNIT ( ) );
#79 =( NAMED_UNIT ( * ) SI_UNIT ( $, .STERADIAN. ) SOLID_ANGLE_UNIT ( ) );
#80 =( LENGTH_UNIT ( ) NAMED_UNIT ( * ) SI_UNIT ( .MILLI., .METRE. ) );
#81 = DIRECTION ( 'NONE',  ( 3.491481338843133355E-15, -1.224646799147353207E-16, 1.000000000000000000 ) ) ;
#82 = VERTEX_POINT ( 'NONE', #115 ) ;
#83 = EDGE_CURVE ( 'NONE', #59, #43, #134, .T. ) ;
#84 = AXIS2_PLACEMENT_3D ( 'NONE', #144, #142, #243 ) ;
#85 = DIRECTION ( 'NONE',  ( -3.491481338843133355E-15, 1.224646799147356658E-16, -1.000000000000000000 ) ) ;
#86 = STYLED_ITEM ( 'NONE', ( #54 ), #70 ) ;
#87 = CARTESIAN_POINT ( 'NONE',  ( 2.199633243471174014E-14, -7.715274834628325378E-16, 6.299999999999999822 ) ) ;
#88 = VECTOR ( 'NONE', #161, 1000.000000000000000 ) ;
#89 = DIRECTION ( 'NONE',  ( 3.491481338843133355E-15, -1.224646799147353207E-16, 1.000000000000000000 ) ) ;
#90 = PLANE ( 'NONE',  #162 ) ;
#91 = CARTESIAN_POINT ( 'NONE',  ( 2.199633243471174014E-14, 0.000000000000000000, 6.299999999999999822 ) ) ;
#92 = APPLICATION_CONTEXT ( 'automotive_design' ) ;
#93 = ORIENTED_EDGE ( 'NONE', *, *, #233, .F. ) ;
#94 = AXIS2_PLACEMENT_3D ( 'NONE', #91, #291, #155 ) ;
#95 = FACE_OUTER_BOUND ( 'NONE', #11, .T. ) ;
#96 = DIRECTION ( 'NONE',  ( 3.491481338843133355E-15, -0.000000000000000000, 1.000000000000000000 ) ) ;
#97 = CARTESIAN_POINT ( 'NONE',  ( 0.000000000000000000, 0.000000000000000000, 0.000000000000000000 ) ) ;
#98 = CYLINDRICAL_SURFACE ( 'NONE', #224, 1.499999999999995337 ) ;
#99 = AXIS2_PLACEMENT_3D ( 'NONE', #133, #85, #135 ) ;
#100 = EDGE_LOOP ( 'NONE', ( #198, #283, #153, #253 ) ) ;
#101 = DIRECTION ( 'NONE',  ( 0.000000000000000000, 1.000000000000000000, 0.000000000000000000 ) ) ;
#102 = FACE_OUTER_BOUND ( 'NONE', #100, .T. ) ;
#103 = DIRECTION ( 'NONE',  ( -3.491481338843133355E-15, 1.224646799147353207E-16, -1.000000000000000000 ) ) ;
#104 = CIRCLE ( 'NONE', #139, 1.499999999999995337 ) ;
#105 =( NAMED_UNIT ( * ) PLANE_ANGLE_UNIT ( ) SI_UNIT ( $, .RADIAN. ) );
#106 = SURFACE_STYLE_FILL_AREA ( #232 ) ;
#107 = DIRECTION ( 'NONE',  ( -3.491481338843133355E-15, 1.224646799147356658E-16, -1.000000000000000000 ) ) ;
#108 = CIRCLE ( 'NONE', #145, 1.199999999999995959 ) ;
#109 = EDGE_LOOP ( 'NONE', ( #128, #223, #34, #210 ) ) ;
#110 = FACE_OUTER_BOUND ( 'NONE', #252, .T. ) ;
#111 = FACE_OUTER_BOUND ( 'NONE', #185, .T. ) ;
#112 = ORIENTED_EDGE ( 'NONE', *, *, #13, .T. ) ;
#113 = CARTESIAN_POINT ( 'NONE',  ( 2.215553651860089772E-14, 1.299999999999999156, 6.299999999999999822 ) ) ;
#114 = AXIS2_PLACEMENT_3D ( 'NONE', #300, #288, #237 ) ;
#115 = CARTESIAN_POINT ( 'NONE',  ( 2.296769236639608842E-14, -1.300000000000000711, 6.299999999999999822 ) ) ;
#116 = EDGE_CURVE ( 'NONE', #234, #261, #301, .T. ) ;
#117 = DIRECTION ( 'NONE',  ( 4.275831445896958607E-31, 1.000000000000000000, 1.224646799147353207E-16 ) ) ;
#118 = ADVANCED_FACE ( 'NONE', ( #44 ), #296, .T. ) ;
#119 = EDGE_CURVE ( 'NONE', #28, #43, #71, .T. ) ;
#120 = STYLED_ITEM ( 'NONE', ( #250 ), #60 ) ;
#121 = SURFACE_SIDE_STYLE ('',( #306 ) ) ;
#122 = AXIS2_PLACEMENT_3D ( 'NONE', #20, #96, #194 ) ;
#123 = ORIENTED_EDGE ( 'NONE', *, *, #229, .F. ) ;
#124 = FILL_AREA_STYLE_COLOUR ( '', #328 ) ;
#125 = ORIENTED_EDGE ( 'NONE', *, *, #156, .T. ) ;
#126 = CARTESIAN_POINT ( 'NONE',  ( 1.318125434942581860E-13, -1.499999999999999778, 37.69999999999998863 ) ) ;
#127 =( NAMED_UNIT ( * ) SI_UNIT ( $, .STERADIAN. ) SOLID_ANGLE_UNIT ( ) );
#128 = ORIENTED_EDGE ( 'NONE', *, *, #206, .F. ) ;
#129 = VECTOR ( 'NONE', #222, 1000.000000000000000 ) ;
#130 = FILL_AREA_STYLE_COLOUR ( '', #207 ) ;
#131 = EDGE_LOOP ( 'NONE', ( #263, #61, #12, #146 ) ) ;
#132 = CARTESIAN_POINT ( 'NONE',  ( 2.393905229808043985E-14, 1.499999999999995337, 6.856417083418351766 ) ) ;
#133 = CARTESIAN_POINT ( 'NONE',  ( 1.316288464743860959E-13, -4.616918432785520292E-15, 37.69999999999998863 ) ) ;
#134 = CIRCLE ( 'NONE', #141, 1.299999999999999156 ) ;
#135 = DIRECTION ( 'NONE',  ( 0.000000000000000000, 1.000000000000000000, 0.000000000000000000 ) ) ;
#136 = VERTEX_POINT ( 'NONE', #298 ) ;
#137 = CARTESIAN_POINT ( 'NONE',  ( 1.323178959930974653E-13, -1.200000000000000622, 38.00000000000000000 ) ) ;
#138 = DIRECTION ( 'NONE',  ( 1.000000000000000000, 0.000000000000000000, -3.336006684570784088E-15 ) ) ;
#139 = AXIS2_PLACEMENT_3D ( 'NONE', #258, #240, #9 ) ;
#140 = DIRECTION ( 'NONE',  ( 3.491481338843133355E-15, -0.000000000000000000, 1.000000000000000000 ) ) ;
#141 = AXIS2_PLACEMENT_3D ( 'NONE', #327, #270, #337 ) ;
#142 = DIRECTION ( 'NONE',  ( 3.491481338843133355E-15, -0.000000000000000000, 1.000000000000000000 ) ) ;
#143 = ADVANCED_FACE ( 'NONE', ( #95 ), #303, .T. ) ;
#144 = CARTESIAN_POINT ( 'NONE',  ( 2.199633243471174014E-14, 0.000000000000000000, 6.299999999999999822 ) ) ;
#145 = AXIS2_PLACEMENT_3D ( 'NONE', #197, #340, #29 ) ;
#146 = ORIENTED_EDGE ( 'NONE', *, *, #116, .F. ) ;
#147 = SURFACE_STYLE_FILL_AREA ( #304 ) ;
#148 = CLOSED_SHELL ( 'NONE', ( #23, #251, #295, #143, #58, #245, #52, #19 ) ) ;
#149 = AXIS2_PLACEMENT_3D ( 'NONE', #294, #140, #191 ) ;
#150 = ORIENTED_EDGE ( 'NONE', *, *, #209, .F. ) ;
#151 = ORIENTED_EDGE ( 'NONE', *, *, #172, .T. ) ;
#152 = VECTOR ( 'NONE', #330, 1000.000000000000000 ) ;
#153 = ORIENTED_EDGE ( 'NONE', *, *, #324, .F. ) ;
#154 = CARTESIAN_POINT ( 'NONE',  ( 1.316288464743860959E-13, -4.616918432785520292E-15, 37.69999999999998863 ) ) ;
#155 = DIRECTION ( 'NONE',  ( 1.000000000000000000, 0.000000000000000000, -3.336006684570784088E-15 ) ) ;
#156 = EDGE_CURVE ( 'NONE', #30, #36, #239, .T. ) ;
#157 = EDGE_LOOP ( 'NONE', ( #26, #179, #4, #31 ) ) ;
#158 =( NAMED_UNIT ( * ) PLANE_ANGLE_UNIT ( ) SI_UNIT ( $, .RADIAN. ) );
#159 = FACE_OUTER_BOUND ( 'NONE', #157, .T. ) ;
#160 = EDGE_CURVE ( 'NONE', #43, #59, #335, .T. ) ;
#161 = DIRECTION ( 'NONE',  ( -2.468850131082303603E-15, 0.7071067811865365815, -0.7071067811865584529 ) ) ;
#162 = AXIS2_PLACEMENT_3D ( 'NONE', #290, #62, #69 ) ;
#163 = VECTOR ( 'NONE', #309, 1000.000000000000000 ) ;
#164 = DIRECTION ( 'NONE',  ( -3.491481338843133355E-15, 1.224646799147353207E-16, -1.000000000000000000 ) ) ;
#165 = EDGE_CURVE ( 'NONE', #136, #28, #265, .T. ) ;
#166 = EDGE_CURVE ( 'NONE', #260, #261, #177, .T. ) ;
#167 = UNCERTAINTY_MEASURE_WITH_UNIT (LENGTH_MEASURE( 1.000000000000000082E-05 ), #205, 'distance_accuracy_value', 'NONE');
#168 = FILL_AREA_STYLE ('',( #195 ) ) ;
#169 = DIRECTION ( 'NONE',  ( 0.000000000000000000, 0.000000000000000000, 1.000000000000000000 ) ) ;
#170 = STYLED_ITEM ( 'NONE', ( #204 ), #275 ) ;
#171 = DIRECTION ( 'NONE',  ( -3.491481338843133355E-15, 1.224646799147353207E-16, -1.000000000000000000 ) ) ;
#172 = EDGE_CURVE ( 'NONE', #280, #82, #38, .T. ) ;
#173 = LINE ( 'NONE', #297, #129 ) ;
#174 = CARTESIAN_POINT ( 'NONE',  ( 0.000000000000000000, 0.000000000000000000, 0.000000000000000000 ) ) ;
#175 = MECHANICAL_DESIGN_GEOMETRIC_PRESENTATION_REPRESENTATION (  '', ( #170 ), #244 ) ;
#176 = CARTESIAN_POINT ( 'NONE',  ( 2.199633243471174014E-14, -7.715274834628325378E-16, 6.299999999999999822 ) ) ;
#177 = CIRCLE ( 'NONE', #322, 1.499999999999995337 ) ;
#178 = SHAPE_DEFINITION_REPRESENTATION ( #302, #70 ) ;
#179 = ORIENTED_EDGE ( 'NONE', *, *, #68, .F. ) ;
#180 = DIRECTION ( 'NONE',  ( 0.000000000000000000, 1.000000000000000000, 0.000000000000000000 ) ) ;
#181 = CARTESIAN_POINT ( 'NONE',  ( 1.326762908760390423E-13, -4.653657836759941941E-15, 38.00000000000000000 ) ) ;
#182 = ORIENTED_EDGE ( 'NONE', *, *, #229, .T. ) ;
#183 = CARTESIAN_POINT ( 'NONE',  ( 7.796764640610538166E-14, -1.499999999999996891, 6.856417083418351766 ) ) ;
#184 = COLOUR_RGB ( '',1.000000000000000000, 1.000000000000000000, 1.000000000000000000 ) ;
#185 = EDGE_LOOP ( 'NONE', ( #8, #93 ) ) ;
#186 = DIRECTION ( 'NONE',  ( -4.275831445896958607E-31, -1.000000000000000000, -1.224646799147353207E-16 ) ) ;
#187 = EDGE_LOOP ( 'NONE', ( #319, #112, #188, #57 ) ) ;
#188 = ORIENTED_EDGE ( 'NONE', *, *, #324, .T. ) ;
#189 = VECTOR ( 'NONE', #235, 1000.000000000000000 ) ;
#190 = DIRECTION ( 'NONE',  ( 0.000000000000000000, 1.000000000000000000, 0.000000000000000000 ) ) ;
#191 = DIRECTION ( 'NONE',  ( 1.000000000000000000, 0.000000000000000000, -3.491481338843133355E-15 ) ) ;
#192 = VECTOR ( 'NONE', #274, 1000.000000000000000 ) ;
#193 =( NAMED_UNIT ( * ) SI_UNIT ( $, .STERADIAN. ) SOLID_ANGLE_UNIT ( ) );
#194 = DIRECTION ( 'NONE',  ( 1.000000000000000000, 0.000000000000000000, -3.491481338843133355E-15 ) ) ;
#195 = FILL_AREA_STYLE_COLOUR ( '', #184 ) ;
#196 = APPLICATION_PROTOCOL_DEFINITION ( 'draft international standard', 'automotive_design', 1998, #92 ) ;
#197 = CARTESIAN_POINT ( 'NONE',  ( 1.326762908760390423E-13, -4.653657836759941941E-15, 38.00000000000000000 ) ) ;
#198 = ORIENTED_EDGE ( 'NONE', *, *, #334, .T. ) ;
#199 = AXIS2_PLACEMENT_3D ( 'NONE', #181, #89, #186 ) ;
#200 = CARTESIAN_POINT ( 'NONE',  ( 1.836970198721017855E-16, -1.499999999999995337, -1.836970198721030427E-16 ) ) ;
#201 = SURFACE_STYLE_USAGE ( .BOTH. , #342 ) ;
#202 = ORIENTED_EDGE ( 'NONE', *, *, #209, .T. ) ;
#203 = DIRECTION ( 'NONE',  ( -1.000000000000000000, 0.000000000000000000, 3.491481338843133355E-15 ) ) ;
#204 = PRESENTATION_STYLE_ASSIGNMENT (( #201 ) ) ;
#205 =( LENGTH_UNIT ( ) NAMED_UNIT ( * ) SI_UNIT ( .MILLI., .METRE. ) );
#206 = EDGE_CURVE ( 'NONE', #260, #30, #338, .T. ) ;
#207 = COLOUR_RGB ( '',1.000000000000000000, 1.000000000000000000, 1.000000000000000000 ) ;
#208 = UNCERTAINTY_MEASURE_WITH_UNIT (LENGTH_MEASURE( 1.000000000000000082E-05 ), #80, 'distance_accuracy_value', 'NONE');
#209 = EDGE_CURVE ( 'NONE', #136, #59, #284, .T. ) ;
#210 = ORIENTED_EDGE ( 'NONE', *, *, #156, .F. ) ;
#211 = SURFACE_STYLE_USAGE ( .BOTH. , #2 ) ;
#212 = ORIENTED_EDGE ( 'NONE', *, *, #13, .F. ) ;
#213 = ORIENTED_EDGE ( 'NONE', *, *, #83, .T. ) ;
#214 = AXIS2_PLACEMENT_3D ( 'NONE', #217, #18, #138 ) ;
#215 = CARTESIAN_POINT ( 'NONE',  ( 2.199633243471174014E-14, -7.715274834628325378E-16, 6.299999999999999822 ) ) ;
#216 = AXIS2_PLACEMENT_3D ( 'NONE', #241, #14, #190 ) ;
#217 = CARTESIAN_POINT ( 'NONE',  ( 2.199633243471174014E-14, 0.000000000000000000, 6.299999999999999822 ) ) ;
#218 = CARTESIAN_POINT ( 'NONE',  ( 2.393905229808043985E-14, -8.396689234827515675E-16, 6.856417083418351766 ) ) ;
#219 = ADVANCED_FACE ( 'NONE', ( #111 ), #90, .F. ) ;
#220 = DIRECTION ( 'NONE',  ( 3.491481338843133355E-15, -1.224646799147353207E-16, 1.000000000000000000 ) ) ;
#221 = FACE_OUTER_BOUND ( 'NONE', #109, .T. ) ;
#222 = DIRECTION ( 'NONE',  ( -3.491481338843133355E-15, 1.224646799147353207E-16, -1.000000000000000000 ) ) ;
#223 = ORIENTED_EDGE ( 'NONE', *, *, #166, .T. ) ;
#224 = AXIS2_PLACEMENT_3D ( 'NONE', #305, #171, #74 ) ;
#225 = VERTEX_POINT ( 'NONE', #137 ) ;
#226 = CARTESIAN_POINT ( 'NONE',  ( 2.199633243471174014E-14, 1.299999999999999156, 6.299999999999999822 ) ) ;
#227 = ORIENTED_EDGE ( 'NONE', *, *, #233, .T. ) ;
#228 = ORIENTED_EDGE ( 'NONE', *, *, #165, .T. ) ;
#229 = EDGE_CURVE ( 'NONE', #82, #280, #321, .T. ) ;
#230 = ORIENTED_EDGE ( 'NONE', *, *, #259, .T. ) ;
#231 = CONICAL_SURFACE ( 'NONE', #5, 1.300000000000000044, 0.3450620389298190704 ) ;
#232 = FILL_AREA_STYLE ('',( #130 ) ) ;
#233 = EDGE_CURVE ( 'NONE', #28, #136, #299, .T. ) ;
#234 = VERTEX_POINT ( 'NONE', #64 ) ;
#235 = DIRECTION ( 'NONE',  ( 3.491481338843133355E-15, -0.000000000000000000, 1.000000000000000000 ) ) ;
#236 = CIRCLE ( 'NONE', #326, 1.499999999999996225 ) ;
#237 = DIRECTION ( 'NONE',  ( 0.000000000000000000, -1.000000000000000000, 0.000000000000000000 ) ) ;
#238 = FACE_OUTER_BOUND ( 'NONE', #293, .T. ) ;
#239 = CIRCLE ( 'NONE', #75, 1.499999999999996225 ) ;
#240 = DIRECTION ( 'NONE',  ( -3.491481338843133355E-15, 1.224646799147356658E-16, -1.000000000000000000 ) ) ;
#241 = CARTESIAN_POINT ( 'NONE',  ( 2.199633243471174014E-14, -7.715274834628325378E-16, 6.299999999999999822 ) ) ;
#242 = CONICAL_SURFACE ( 'NONE', #99, 1.499999999999995337, 0.7853981633974327359 ) ;
#243 = DIRECTION ( 'NONE',  ( 1.000000000000000000, 0.000000000000000000, -3.336006684570784876E-15 ) ) ;
#244 =( GEOMETRIC_REPRESENTATION_CONTEXT ( 3 ) GLOBAL_UNCERTAINTY_ASSIGNED_CONTEXT ( ( #266 ) ) GLOBAL_UNIT_ASSIGNED_CONTEXT ( ( #310, #343, #78 ) ) REPRESENTATION_CONTEXT ( 'NONE', 'WORKASPACE' ) );
#245 = ADVANCED_FACE ( 'NONE', ( #221 ), #22, .T. ) ;
#246 = ADVANCED_FACE ( 'NONE', ( #50 ), #308, .F. ) ;
#247 = CARTESIAN_POINT ( 'NONE',  ( 2.393905229808043985E-14, -8.396689234827515675E-16, 6.856417083418351766 ) ) ;
#248 = VECTOR ( 'NONE', #3, 1000.000000000000114 ) ;
#249 = CARTESIAN_POINT ( 'NONE',  ( 7.778394938623327894E-14, 1.499999999999990674, 37.69999999999998863 ) ) ;
#250 = PRESENTATION_STYLE_ASSIGNMENT (( #53 ) ) ;
#251 = ADVANCED_FACE ( 'NONE', ( #281 ), #231, .T. ) ;
#252 = EDGE_LOOP ( 'NONE', ( #316, #230 ) ) ;
#253 = ORIENTED_EDGE ( 'NONE', *, *, #255, .F. ) ;
#254 = PRESENTATION_LAYER_ASSIGNMENT (  '', '', ( #170 ) ) ;
#255 = EDGE_CURVE ( 'NONE', #261, #36, #173, .T. ) ;
#256 = ORIENTED_EDGE ( 'NONE', *, *, #311, .T. ) ;
#257 = FACE_OUTER_BOUND ( 'NONE', #131, .T. ) ;
#258 = CARTESIAN_POINT ( 'NONE',  ( 1.316288464743860959E-13, -4.616918432785520292E-15, 37.69999999999998863 ) ) ;
#259 = EDGE_CURVE ( 'NONE', #225, #234, #108, .T. ) ;
#260 = VERTEX_POINT ( 'NONE', #25 ) ;
#261 = VERTEX_POINT ( 'NONE', #249 ) ;
#262 = DIRECTION ( 'NONE',  ( -3.491481338843133355E-15, 1.224646799147356658E-16, -1.000000000000000000 ) ) ;
#263 = ORIENTED_EDGE ( 'NONE', *, *, #259, .F. ) ;
#264 = EDGE_LOOP ( 'NONE', ( #228, #282, #329, #150 ) ) ;
#265 = CIRCLE ( 'NONE', #122, 1.300000000000000044 ) ;
#266 = UNCERTAINTY_MEASURE_WITH_UNIT (LENGTH_MEASURE( 1.000000000000000082E-05 ), #310, 'distance_accuracy_value', 'NONE');
#267 = EDGE_CURVE ( 'NONE', #225, #260, #279, .T. ) ;
#268 = PRESENTATION_LAYER_ASSIGNMENT (  '', '', ( #120 ) ) ;
#269 = DIRECTION ( 'NONE',  ( 0.000000000000000000, 1.000000000000000000, 0.000000000000000000 ) ) ;
#270 = DIRECTION ( 'NONE',  ( 3.491481338843133355E-15, -0.000000000000000000, 1.000000000000000000 ) ) ;
#271 = AXIS2_PLACEMENT_3D ( 'NONE', #176, #103, #101 ) ;
#272 = PRODUCT_DEFINITION_CONTEXT ( 'detailed design', #317, 'design' ) ;
#273 = LINE ( 'NONE', #48, #192 ) ;
#274 = DIRECTION ( 'NONE',  ( 3.285674118869261816E-15, -0.3382550599108820610, 0.9410544694355824635 ) ) ;
#275 = MANIFOLD_SOLID_BREP ( 'Corps-Déplacer/Copier1[2]', #16 ) ;
#276 = DIRECTION ( 'NONE',  ( -3.491481338843133355E-15, 1.224646799147353207E-16, -1.000000000000000000 ) ) ;
#277 = PRESENTATION_LAYER_ASSIGNMENT (  '', '', ( #86 ) ) ;
#278 = MECHANICAL_DESIGN_GEOMETRIC_PRESENTATION_REPRESENTATION (  '', ( #120 ), #41 ) ;
#279 = LINE ( 'NONE', #126, #47 ) ;
#280 = VERTEX_POINT ( 'NONE', #339 ) ;
#281 = FACE_OUTER_BOUND ( 'NONE', #187, .T. ) ;
#282 = ORIENTED_EDGE ( 'NONE', *, *, #119, .T. ) ;
#283 = ORIENTED_EDGE ( 'NONE', *, *, #206, .T. ) ;
#284 = LINE ( 'NONE', #35, #189 ) ;
#285 = CIRCLE ( 'NONE', #114, 1.199999999999995959 ) ;
#286 = CARTESIAN_POINT ( 'NONE',  ( -1.299999999999977174, 1.592040838891558356E-16, 6.300000000000004263 ) ) ;
#287 = ORIENTED_EDGE ( 'NONE', *, *, #160, .F. ) ;
#288 = DIRECTION ( 'NONE',  ( 3.491481338843133355E-15, -1.224646799147353207E-16, 1.000000000000000000 ) ) ;
#289 = CARTESIAN_POINT ( 'NONE',  ( 1.300000000000020917, 0.000000000000000000, 6.299999999999995381 ) ) ;
#290 = CARTESIAN_POINT ( 'NONE',  ( 5.344789307371187311E-32, 1.300000000000000044, 1.530808498934188119E-17 ) ) ;
#291 = DIRECTION ( 'NONE',  ( 3.491481338843133355E-15, -0.000000000000000000, 1.000000000000000000 ) ) ;
#292 = CYLINDRICAL_SURFACE ( 'NONE', #94, 1.299999999999999600 ) ;
#293 = EDGE_LOOP ( 'NONE', ( #55, #227, #202, #287 ) ) ;
#294 = CARTESIAN_POINT ( 'NONE',  ( 0.000000000000000000, 0.000000000000000000, 0.000000000000000000 ) ) ;
#295 = ADVANCED_FACE ( 'NONE', ( #102 ), #98, .T. ) ;
#296 = CYLINDRICAL_SURFACE ( 'NONE', #214, 1.299999999999999600 ) ;
#297 = CARTESIAN_POINT ( 'NONE',  ( 6.413747168845417766E-31, 1.499999999999995337, 1.836970198721024018E-16 ) ) ;
#298 = CARTESIAN_POINT ( 'NONE',  ( 1.300000000000000044, 0.000000000000000000, -4.538925740496073362E-15 ) ) ;
#299 = CIRCLE ( 'NONE', #149, 1.300000000000000044 ) ;
#300 = CARTESIAN_POINT ( 'NONE',  ( 1.326762908760390423E-13, -4.653657836759941941E-15, 38.00000000000000000 ) ) ;
#301 = LINE ( 'NONE', #45, #88 ) ;
#302 = PRODUCT_DEFINITION_SHAPE ( 'NONE', 'NONE',  #77 ) ;
#303 = PLANE ( 'NONE',  #341 ) ;
#304 = FILL_AREA_STYLE ('',( #124 ) ) ;
#305 = CARTESIAN_POINT ( 'NONE',  ( 0.000000000000000000, 0.000000000000000000, 0.000000000000000000 ) ) ;
#306 = SURFACE_STYLE_FILL_AREA ( #168 ) ;
#307 = AXIS2_PLACEMENT_3D ( 'NONE', #215, #81, #323 ) ;
#308 = PLANE ( 'NONE',  #56 ) ;
#309 = DIRECTION ( 'NONE',  ( -3.491481338843133355E-15, 1.224646799147353207E-16, -1.000000000000000000 ) ) ;
#310 =( LENGTH_UNIT ( ) NAMED_UNIT ( * ) SI_UNIT ( .MILLI., .METRE. ) );
#311 = EDGE_CURVE ( 'NONE', #82, #30, #273, .T. ) ;
#312 = DIRECTION ( 'NONE',  ( 1.000000000000000000, 0.000000000000000000, 0.000000000000000000 ) ) ;
#313 = EDGE_LOOP ( 'NONE', ( #212, #123, #256, #125 ) ) ;
#314 =( LENGTH_UNIT ( ) NAMED_UNIT ( * ) SI_UNIT ( .MILLI., .METRE. ) );
#315 = PRODUCT_CONTEXT ( 'NONE', #92, 'mechanical' ) ;
#316 = ORIENTED_EDGE ( 'NONE', *, *, #68, .T. ) ;
#317 = APPLICATION_CONTEXT ( 'automotive_design' ) ;
#318 = FACE_OUTER_BOUND ( 'NONE', #313, .T. ) ;
#319 = ORIENTED_EDGE ( 'NONE', *, *, #172, .F. ) ;
#320 = DIRECTION ( 'NONE',  ( 0.000000000000000000, 1.000000000000000000, 0.000000000000000000 ) ) ;
#321 = CIRCLE ( 'NONE', #216, 1.300000000000000044 ) ;
#322 = AXIS2_PLACEMENT_3D ( 'NONE', #72, #262, #49 ) ;
#323 = DIRECTION ( 'NONE',  ( 0.000000000000000000, -1.000000000000000000, 0.000000000000000000 ) ) ;
#324 = EDGE_CURVE ( 'NONE', #36, #30, #236, .T. ) ;
#325 = PLANE ( 'NONE',  #199 ) ;
#326 = AXIS2_PLACEMENT_3D ( 'NONE', #247, #51, #180 ) ;
#327 = CARTESIAN_POINT ( 'NONE',  ( 2.199633243471174014E-14, 0.000000000000000000, 6.299999999999999822 ) ) ;
#328 = COLOUR_RGB ( '',1.000000000000000000, 1.000000000000000000, 1.000000000000000000 ) ;
#329 = ORIENTED_EDGE ( 'NONE', *, *, #83, .F. ) ;
#330 = DIRECTION ( 'NONE',  ( 3.491481338843133355E-15, -0.000000000000000000, 1.000000000000000000 ) ) ;
#331 = CARTESIAN_POINT ( 'NONE',  ( -1.299999999999977618, 1.592040838891558602E-16, 6.300000000000004263 ) ) ;
#332 = APPLICATION_PROTOCOL_DEFINITION ( 'draft international standard', 'automotive_design', 1998, #317 ) ;
#333 = MECHANICAL_DESIGN_GEOMETRIC_PRESENTATION_REPRESENTATION (  '', ( #86 ), #40 ) ;
#334 = EDGE_CURVE ( 'NONE', #261, #260, #104, .T. ) ;
#335 = CIRCLE ( 'NONE', #84, 1.299999999999999156 ) ;
#336 = DIRECTION ( 'NONE',  ( 4.275831445896958607E-31, 1.000000000000000000, 1.224646799147353207E-16 ) ) ;
#337 = DIRECTION ( 'NONE',  ( 1.000000000000000000, 0.000000000000000000, -3.336006684570784876E-15 ) ) ;
#338 = LINE ( 'NONE', #200, #163 ) ;
#339 = CARTESIAN_POINT ( 'NONE',  ( 2.313914291827671699E-14, 1.299999999999999156, 6.299999999999999822 ) ) ;
#340 = DIRECTION ( 'NONE',  ( 3.491481338843133355E-15, -1.224646799147353207E-16, 1.000000000000000000 ) ) ;
#341 = AXIS2_PLACEMENT_3D ( 'NONE', #67, #65, #117 ) ;
#342 = SURFACE_SIDE_STYLE ('',( #147 ) ) ;
#343 =( NAMED_UNIT ( * ) PLANE_ANGLE_UNIT ( ) SI_UNIT ( $, .RADIAN. ) );
ENDSEC;
END-ISO-10303-21;
