ISO-10303-21;
HEADER;
FILE_DESCRIPTION (( 'STEP AP214' ),
    '1' );
FILE_NAME ('952938.step',
    '2024-04-04T13:05:37',
    ( '' ),
    ( '' ),
    'SwSTEP 2.0',
    'SolidWorks 2022',
    '' );
FILE_SCHEMA (( 'AUTOMOTIVE_DESIGN' ));
ENDSEC;

DATA;
#1 = ORIENTED_EDGE ( 'NONE', *, *, #166, .F. ) ;
#2 = ORIENTED_EDGE ( 'NONE', *, *, #312, .T. ) ;
#3 = CARTESIAN_POINT ( 'NONE',  ( 0.000000000000000000, 0.000000000000000000, 0.000000000000000000 ) ) ;
#4 = ORIENTED_EDGE ( 'NONE', *, *, #170, .F. ) ;
#5 = AXIS2_PLACEMENT_3D ( 'NONE', #183, #216, #286 ) ;
#6 = VERTEX_POINT ( 'NONE', #163 ) ;
#7 = ADVANCED_FACE ( 'NONE', ( #264 ), #134, .T. ) ;
#8 = CONICAL_SURFACE ( 'NONE', #245, 1.499999999999992673, 0.7853981633974284060 ) ;
#9 = PRODUCT_DEFINITION_FORMATION_WITH_SPECIFIED_SOURCE ( 'ANY', '', #190, .NOT_KNOWN. ) ;
#10 = DIRECTION ( 'NONE',  ( 0.000000000000000000, -1.000000000000000000, 0.000000000000000000 ) ) ;
#11 = CARTESIAN_POINT ( 'NONE',  ( 1.571166602479409063E-14, -5.510910596163085611E-16, 4.499999999999997335 ) ) ;
#12 = FACE_OUTER_BOUND ( 'NONE', #31, .T. ) ;
#13 = EDGE_CURVE ( 'NONE', #318, #104, #228, .T. ) ;
#14 = AXIS2_PLACEMENT_3D ( 'NONE', #155, #206, #231 ) ;
#15 = MECHANICAL_DESIGN_GEOMETRIC_PRESENTATION_REPRESENTATION (  '', ( #328 ), #164 ) ;
#16 = PLANE ( 'NONE',  #272 ) ;
#17 = ADVANCED_FACE ( 'NONE', ( #70 ), #227, .T. ) ;
#18 = DIRECTION ( 'NONE',  ( 3.491481338843133355E-15, -0.000000000000000000, 1.000000000000000000 ) ) ;
#19 = CLOSED_SHELL ( 'NONE', ( #64, #238, #208, #211 ) ) ;
#20 = FILL_AREA_STYLE ('',( #127 ) ) ;
#21 = EDGE_CURVE ( 'NONE', #6, #285, #68, .T. ) ;
#22 = DIRECTION ( 'NONE',  ( -4.275831445896958607E-31, -1.000000000000000000, -1.224646799147353207E-16 ) ) ;
#23 = AXIS2_PLACEMENT_3D ( 'NONE', #41, #123, #174 ) ;
#24 = EDGE_LOOP ( 'NONE', ( #131, #37 ) ) ;
#25 = CARTESIAN_POINT ( 'NONE',  ( 1.789722587108387978E-14, -1.050000000000000933, 4.499999999999997335 ) ) ;
#26 = ORIENTED_EDGE ( 'NONE', *, *, #335, .T. ) ;
#27 = AXIS2_PLACEMENT_3D ( 'NONE', #66, #223, #273 ) ;
#28 = VERTEX_POINT ( 'NONE', #129 ) ;
#29 = ORIENTED_EDGE ( 'NONE', *, *, #246, .F. ) ;
#30 = DIRECTION ( 'NONE',  ( 0.000000000000000000, -1.000000000000000000, 0.000000000000000000 ) ) ;
#31 = EDGE_LOOP ( 'NONE', ( #255, #2, #252, #141 ) ) ;
#32 = DIRECTION ( 'NONE',  ( -2.468850131082314253E-15, 0.7071067811865335839, -0.7071067811865614505 ) ) ;
#33 = DIRECTION ( 'NONE',  ( -3.491481338843133355E-15, 1.224646799147353207E-16, -1.000000000000000000 ) ) ;
#34 = DIRECTION ( 'NONE',  ( 3.491481338843133355E-15, -1.224646799147353207E-16, 1.000000000000000000 ) ) ;
#35 = SURFACE_SIDE_STYLE ('',( #65 ) ) ;
#36 = AXIS2_PLACEMENT_3D ( 'NONE', #313, #232, #283 ) ;
#37 = ORIENTED_EDGE ( 'NONE', *, *, #176, .T. ) ;
#38 = DIRECTION ( 'NONE',  ( 0.000000000000000000, 1.000000000000000000, 0.000000000000000000 ) ) ;
#39 = LINE ( 'NONE', #248, #198 ) ;
#40 = FACE_OUTER_BOUND ( 'NONE', #81, .T. ) ;
#41 = CARTESIAN_POINT ( 'NONE',  ( 1.571166602479409063E-14, -5.510910596163085611E-16, 4.499999999999997335 ) ) ;
#42 = CARTESIAN_POINT ( 'NONE',  ( -3.028377322213058170E-30, 0.000000000000000000, -8.673617379884035472E-16 ) ) ;
#43 =( LENGTH_UNIT ( ) NAMED_UNIT ( * ) SI_UNIT ( .MILLI., .METRE. ) );
#44 =( GEOMETRIC_REPRESENTATION_CONTEXT ( 3 ) GLOBAL_UNCERTAINTY_ASSIGNED_CONTEXT ( ( #152 ) ) GLOBAL_UNIT_ASSIGNED_CONTEXT ( ( #43, #202, #91 ) ) REPRESENTATION_CONTEXT ( 'NONE', 'WORKASPACE' ) );
#45 = EDGE_CURVE ( 'NONE', #239, #320, #187, .T. ) ;
#46 = DIRECTION ( 'NONE',  ( -2.382254525458767168E-15, -0.7071067811865334729, -0.7071067811865617836 ) ) ;
#47 = FILL_AREA_STYLE_COLOUR ( '', #135 ) ;
#48 = VERTEX_POINT ( 'NONE', #25 ) ;
#49 = EDGE_LOOP ( 'NONE', ( #4, #77, #133, #284 ) ) ;
#50 = AXIS2_PLACEMENT_3D ( 'NONE', #58, #33, #145 ) ;
#51 = ORIENTED_EDGE ( 'NONE', *, *, #324, .F. ) ;
#52 = PRODUCT_CONTEXT ( 'NONE', #92, 'mechanical' ) ;
#53 = EDGE_CURVE ( 'NONE', #104, #239, #325, .T. ) ;
#54 = CARTESIAN_POINT ( 'NONE',  ( 1.316288464743860959E-13, -4.616918432785520292E-15, 37.69999999999998863 ) ) ;
#55 = ORIENTED_EDGE ( 'NONE', *, *, #259, .F. ) ;
#56 = FACE_OUTER_BOUND ( 'NONE', #103, .T. ) ;
#57 = ORIENTED_EDGE ( 'NONE', *, *, #224, .F. ) ;
#58 = CARTESIAN_POINT ( 'NONE',  ( 2.008278571737366892E-14, -7.044092996611266244E-16, 5.751938437691291206 ) ) ;
#59 = CIRCLE ( 'NONE', #173, 1.049999999999999822 ) ;
#60 = DIRECTION ( 'NONE',  ( 3.491481338843133355E-15, -0.000000000000000000, 1.000000000000000000 ) ) ;
#61 = DIRECTION ( 'NONE',  ( 1.000000000000000000, 0.000000000000000000, -3.304235192336775906E-15 ) ) ;
#62 = AXIS2_PLACEMENT_3D ( 'NONE', #142, #241, #10 ) ;
#63 = DIRECTION ( 'NONE',  ( -1.000000000000000000, 0.000000000000000000, 3.491481338843133355E-15 ) ) ;
#64 = ADVANCED_FACE ( 'NONE', ( #188 ), #138, .T. ) ;
#65 = SURFACE_STYLE_FILL_AREA ( #242 ) ;
#66 = CARTESIAN_POINT ( 'NONE',  ( -1.047578704244754850E-30, 1.050000000000000488, -3.000384657911015863E-16 ) ) ;
#67 = FACE_OUTER_BOUND ( 'NONE', #24, .T. ) ;
#68 = CIRCLE ( 'NONE', #14, 1.499999999999992673 ) ;
#69 =( NAMED_UNIT ( * ) PLANE_ANGLE_UNIT ( ) SI_UNIT ( $, .RADIAN. ) );
#70 = FACE_OUTER_BOUND ( 'NONE', #136, .T. ) ;
#71 = EDGE_CURVE ( 'NONE', #28, #285, #86, .T. ) ;
#72 = SURFACE_STYLE_USAGE ( .BOTH. , #311 ) ;
#73 = CARTESIAN_POINT ( 'NONE',  ( 1.318125434942581860E-13, -1.499999999999997113, 37.69999999999998863 ) ) ;
#74 = EDGE_LOOP ( 'NONE', ( #139, #109 ) ) ;
#75 = ORIENTED_EDGE ( 'NONE', *, *, #21, .F. ) ;
#76 = CARTESIAN_POINT ( 'NONE',  ( 1.571166602479409063E-14, -5.510910596163085611E-16, 4.499999999999997335 ) ) ;
#77 = ORIENTED_EDGE ( 'NONE', *, *, #324, .T. ) ;
#78 = ADVANCED_FACE ( 'NONE', ( #12 ), #105, .T. ) ;
#79 = FACE_OUTER_BOUND ( 'NONE', #219, .T. ) ;
#80 = CIRCLE ( 'NONE', #310, 1.499999999999992673 ) ;
#81 = EDGE_LOOP ( 'NONE', ( #240, #84, #237, #193 ) ) ;
#82 = APPLICATION_PROTOCOL_DEFINITION ( 'draft international standard', 'automotive_design', 1998, #128 ) ;
#83 = CARTESIAN_POINT ( 'NONE',  ( 1.571166602479409063E-14, -5.510910596163085611E-16, 4.499999999999997335 ) ) ;
#84 = ORIENTED_EDGE ( 'NONE', *, *, #13, .T. ) ;
#85 = DIRECTION ( 'NONE',  ( 3.285674118869263394E-15, -0.3382550599108809508, 0.9410544694355829076 ) ) ;
#86 = LINE ( 'NONE', #317, #119 ) ;
#87 = CARTESIAN_POINT ( 'NONE',  ( 1.050000000000015810, 0.000000000000000000, 4.499999999999993783 ) ) ;
#88 = PRESENTATION_LAYER_ASSIGNMENT (  '', '', ( #340 ) ) ;
#89 = PLANE ( 'NONE',  #27 ) ;
#90 = CARTESIAN_POINT ( 'NONE',  ( 1.050000000000015365, 0.000000000000000000, 4.499999999999993783 ) ) ;
#91 =( NAMED_UNIT ( * ) SI_UNIT ( $, .STERADIAN. ) SOLID_ANGLE_UNIT ( ) );
#92 = APPLICATION_CONTEXT ( 'automotive_design' ) ;
#93 = AXIS2_PLACEMENT_3D ( 'NONE', #113, #292, #143 ) ;
#94 = SURFACE_SIDE_STYLE ('',( #100 ) ) ;
#95 = DIRECTION ( 'NONE',  ( 3.491481338843133355E-15, -1.224646799147353207E-16, 1.000000000000000000 ) ) ;
#96 = DIRECTION ( 'NONE',  ( 1.000000000000000000, 0.000000000000000000, -3.491481338843134144E-15 ) ) ;
#97 = VERTEX_POINT ( 'NONE', #214 ) ;
#98 = CARTESIAN_POINT ( 'NONE',  ( 1.323178959930974653E-13, -1.200000000000000622, 38.00000000000000000 ) ) ;
#99 =( LENGTH_UNIT ( ) NAMED_UNIT ( * ) SI_UNIT ( .MILLI., .METRE. ) );
#100 = SURFACE_STYLE_FILL_AREA ( #250 ) ;
#101 = CIRCLE ( 'NONE', #108, 1.050000000000000266 ) ;
#102 = COLOUR_RGB ( '',1.000000000000000000, 1.000000000000000000, 1.000000000000000000 ) ;
#103 = EDGE_LOOP ( 'NONE', ( #215, #233, #213, #57 ) ) ;
#104 = VERTEX_POINT ( 'NONE', #319 ) ;
#105 = CYLINDRICAL_SURFACE ( 'NONE', #153, 1.499999999999992673 ) ;
#106 = ORIENTED_EDGE ( 'NONE', *, *, #234, .T. ) ;
#107 = DIRECTION ( 'NONE',  ( -3.491481338843133355E-15, 1.224646799147356658E-16, -1.000000000000000000 ) ) ;
#108 = AXIS2_PLACEMENT_3D ( 'NONE', #83, #184, #192 ) ;
#109 = ORIENTED_EDGE ( 'NONE', *, *, #13, .F. ) ;
#110 = CARTESIAN_POINT ( 'NONE',  ( 1.571166602479409063E-14, 0.000000000000000000, 4.499999999999997335 ) ) ;
#111 = DIRECTION ( 'NONE',  ( 0.000000000000000000, -1.000000000000000000, 0.000000000000000000 ) ) ;
#112 = DIRECTION ( 'NONE',  ( 3.491481338843133355E-15, -1.224646799147353207E-16, 1.000000000000000000 ) ) ;
#113 = CARTESIAN_POINT ( 'NONE',  ( 1.571166602479409063E-14, 1.049999999999999822, 4.499999999999997335 ) ) ;
#114 = AXIS2_PLACEMENT_3D ( 'NONE', #11, #112, #301 ) ;
#115 = CIRCLE ( 'NONE', #290, 1.199999999999995959 ) ;
#116 = CARTESIAN_POINT ( 'NONE',  ( 7.603951311575194887E-14, -1.499999999999991340, 5.751938437691291206 ) ) ;
#117 = ADVANCED_FACE ( 'NONE', ( #79 ), #266, .T. ) ;
#118 = CARTESIAN_POINT ( 'NONE',  ( -1.049999999999984501, 1.285879139104720978E-16, 4.500000000000000888 ) ) ;
#119 = VECTOR ( 'NONE', #32, 1000.000000000000000 ) ;
#120 = PRODUCT_DEFINITION ( 'UNKNOWN', '', #9, #226 ) ;
#121 = EDGE_CURVE ( 'NONE', #285, #6, #80, .T. ) ;
#122 = CONICAL_SURFACE ( 'NONE', #321, 1.499999999999992673, 0.7853981633974284060 ) ;
#123 = DIRECTION ( 'NONE',  ( -3.491481338843133355E-15, 1.224646799147353207E-16, -1.000000000000000000 ) ) ;
#124 = DIRECTION ( 'NONE',  ( 0.000000000000000000, 1.000000000000000000, 0.000000000000000000 ) ) ;
#125 = PRESENTATION_LAYER_ASSIGNMENT (  '', '', ( #330 ) ) ;
#126 = CARTESIAN_POINT ( 'NONE',  ( 1.326762908760390423E-13, -4.653657836759941941E-15, 38.00000000000000000 ) ) ;
#127 = FILL_AREA_STYLE_COLOUR ( '', #154 ) ;
#128 = APPLICATION_CONTEXT ( 'automotive_design' ) ;
#129 = CARTESIAN_POINT ( 'NONE',  ( 1.321525686752125943E-13, 1.199999999999991518, 38.00000000000000000 ) ) ;
#130 = ADVANCED_FACE ( 'NONE', ( #56 ), #218, .T. ) ;
#131 = ORIENTED_EDGE ( 'NONE', *, *, #45, .T. ) ;
#132 = PRESENTATION_STYLE_ASSIGNMENT (( #72 ) ) ;
#133 = ORIENTED_EDGE ( 'NONE', *, *, #121, .F. ) ;
#134 = CONICAL_SURFACE ( 'NONE', #114, 1.050000000000000266, 0.3450620389298178492 ) ;
#135 = COLOUR_RGB ( '',1.000000000000000000, 1.000000000000000000, 1.000000000000000000 ) ;
#136 = EDGE_LOOP ( 'NONE', ( #158, #144 ) ) ;
#137 = ADVANCED_BREP_SHAPE_REPRESENTATION ( '952938', ( #175, #280, #5 ), #44 ) ;
#138 = CYLINDRICAL_SURFACE ( 'NONE', #221, 1.050000000000000044 ) ;
#139 = ORIENTED_EDGE ( 'NONE', *, *, #251, .F. ) ;
#140 = CARTESIAN_POINT ( 'NONE',  ( 6.413747168845406381E-31, 1.499999999999992673, 1.836970198721020813E-16 ) ) ;
#141 = ORIENTED_EDGE ( 'NONE', *, *, #162, .F. ) ;
#142 = CARTESIAN_POINT ( 'NONE',  ( 1.326762908760390423E-13, -4.653657836759941941E-15, 38.00000000000000000 ) ) ;
#143 = DIRECTION ( 'NONE',  ( 4.275831445896958607E-31, 1.000000000000000000, 1.224646799147353207E-16 ) ) ;
#144 = ORIENTED_EDGE ( 'NONE', *, *, #170, .T. ) ;
#145 = DIRECTION ( 'NONE',  ( 0.000000000000000000, 1.000000000000000000, 0.000000000000000000 ) ) ;
#146 = AXIS2_PLACEMENT_3D ( 'NONE', #76, #34, #30 ) ;
#147 = SURFACE_STYLE_USAGE ( .BOTH. , #35 ) ;
#148 =( NAMED_UNIT ( * ) SI_UNIT ( $, .STERADIAN. ) SOLID_ANGLE_UNIT ( ) );
#149 = LINE ( 'NONE', #118, #314 ) ;
#150 = ADVANCED_FACE ( 'NONE', ( #165 ), #258, .T. ) ;
#151 = CYLINDRICAL_SURFACE ( 'NONE', #210, 1.050000000000000044 ) ;
#152 = UNCERTAINTY_MEASURE_WITH_UNIT (LENGTH_MEASURE( 1.000000000000000082E-05 ), #43, 'distance_accuracy_value', 'NONE');
#153 = AXIS2_PLACEMENT_3D ( 'NONE', #3, #300, #298 ) ;
#154 = COLOUR_RGB ( '',1.000000000000000000, 1.000000000000000000, 1.000000000000000000 ) ;
#155 = CARTESIAN_POINT ( 'NONE',  ( 1.316288464743860959E-13, -4.616918432785520292E-15, 37.69999999999998863 ) ) ;
#156 = AXIS2_PLACEMENT_3D ( 'NONE', #334, #169, #38 ) ;
#157 = CARTESIAN_POINT ( 'NONE',  ( 7.585581609587989663E-14, 1.499999999999988010, 37.69999999999998863 ) ) ;
#158 = ORIENTED_EDGE ( 'NONE', *, *, #263, .T. ) ;
#159 = ORIENTED_EDGE ( 'NONE', *, *, #71, .T. ) ;
#160 = CARTESIAN_POINT ( 'NONE',  ( 0.000000000000000000, 0.000000000000000000, 0.000000000000000000 ) ) ;
#161 = DIRECTION ( 'NONE',  ( -3.491481338843133355E-15, 1.224646799147353207E-16, -1.000000000000000000 ) ) ;
#162 = EDGE_CURVE ( 'NONE', #285, #97, #322, .T. ) ;
#163 = CARTESIAN_POINT ( 'NONE',  ( 7.603951311575191100E-14, -1.499999999999997113, 37.69999999999998863 ) ) ;
#164 =( GEOMETRIC_REPRESENTATION_CONTEXT ( 3 ) GLOBAL_UNCERTAINTY_ASSIGNED_CONTEXT ( ( #199 ) ) GLOBAL_UNIT_ASSIGNED_CONTEXT ( ( #179, #254, #294 ) ) REPRESENTATION_CONTEXT ( 'NONE', 'WORKASPACE' ) );
#165 = FACE_OUTER_BOUND ( 'NONE', #323, .T. ) ;
#166 = EDGE_CURVE ( 'NONE', #235, #48, #101, .T. ) ;
#167 = DIRECTION ( 'NONE',  ( 3.491481338843133355E-15, -0.000000000000000000, 1.000000000000000000 ) ) ;
#168 = CIRCLE ( 'NONE', #23, 1.050000000000000266 ) ;
#169 = DIRECTION ( 'NONE',  ( -3.491481338843133355E-15, 1.224646799147353207E-16, -1.000000000000000000 ) ) ;
#170 = EDGE_CURVE ( 'NONE', #257, #28, #195, .T. ) ;
#171 = ADVANCED_FACE ( 'NONE', ( #201 ), #8, .T. ) ;
#172 = CARTESIAN_POINT ( 'NONE',  ( 1.316288464743860959E-13, -4.616918432785520292E-15, 37.69999999999998863 ) ) ;
#173 = AXIS2_PLACEMENT_3D ( 'NONE', #309, #167, #61 ) ;
#174 = DIRECTION ( 'NONE',  ( 0.000000000000000000, 1.000000000000000000, 0.000000000000000000 ) ) ;
#175 = MANIFOLD_SOLID_BREP ( 'Corps-Déplacer/Copier1[1]', #256 ) ;
#176 = EDGE_CURVE ( 'NONE', #320, #239, #59, .T. ) ;
#177 = CARTESIAN_POINT ( 'NONE',  ( 1.316288464743860959E-13, -4.616918432785520292E-15, 37.69999999999998863 ) ) ;
#178 = DIRECTION ( 'NONE',  ( 3.327098416510789187E-15, 0.3382550599108807288, 0.9410544694355829076 ) ) ;
#179 =( LENGTH_UNIT ( ) NAMED_UNIT ( * ) SI_UNIT ( .MILLI., .METRE. ) );
#180 = EDGE_LOOP ( 'NONE', ( #1, #288, #262, #55 ) ) ;
#181 = DIRECTION ( 'NONE',  ( 1.000000000000000000, 0.000000000000000000, -3.491481338843134144E-15 ) ) ;
#182 = ORIENTED_EDGE ( 'NONE', *, *, #45, .F. ) ;
#183 = CARTESIAN_POINT ( 'NONE',  ( 0.000000000000000000, 0.000000000000000000, 0.000000000000000000 ) ) ;
#184 = DIRECTION ( 'NONE',  ( -3.491481338843133355E-15, 1.224646799147353207E-16, -1.000000000000000000 ) ) ;
#185 = EDGE_LOOP ( 'NONE', ( #51, #293, #159, #75 ) ) ;
#186 = CARTESIAN_POINT ( 'NONE',  ( 1.571166602479409063E-14, -1.050000000000000933, 4.499999999999997335 ) ) ;
#187 = CIRCLE ( 'NONE', #36, 1.049999999999999822 ) ;
#188 = FACE_OUTER_BOUND ( 'NONE', #315, .T. ) ;
#189 = ORIENTED_EDGE ( 'NONE', *, *, #224, .T. ) ;
#190 = PRODUCT ( '952938', '952938', '', ( #52 ) ) ;
#191 = DIRECTION ( 'NONE',  ( -3.491481338843133355E-15, 1.224646799147356658E-16, -1.000000000000000000 ) ) ;
#192 = DIRECTION ( 'NONE',  ( 0.000000000000000000, 1.000000000000000000, 0.000000000000000000 ) ) ;
#193 = ORIENTED_EDGE ( 'NONE', *, *, #176, .F. ) ;
#194 = DIRECTION ( 'NONE',  ( 3.491481338843133355E-15, -0.000000000000000000, 1.000000000000000000 ) ) ;
#195 = CIRCLE ( 'NONE', #62, 1.199999999999995959 ) ;
#196 = FACE_OUTER_BOUND ( 'NONE', #49, .T. ) ;
#197 = FILL_AREA_STYLE_COLOUR ( '', #102 ) ;
#198 = VECTOR ( 'NONE', #282, 1000.000000000000000 ) ;
#199 = UNCERTAINTY_MEASURE_WITH_UNIT (LENGTH_MEASURE( 1.000000000000000082E-05 ), #179, 'distance_accuracy_value', 'NONE');
#200 = LINE ( 'NONE', #307, #236 ) ;
#201 = FACE_OUTER_BOUND ( 'NONE', #185, .T. ) ;
#202 =( NAMED_UNIT ( * ) PLANE_ANGLE_UNIT ( ) SI_UNIT ( $, .RADIAN. ) );
#203 = VERTEX_POINT ( 'NONE', #116 ) ;
#204 = CIRCLE ( 'NONE', #50, 1.499999999999990674 ) ;
#205 = DIRECTION ( 'NONE',  ( 3.491481338843133355E-15, -0.000000000000000000, 1.000000000000000000 ) ) ;
#206 = DIRECTION ( 'NONE',  ( -3.491481338843133355E-15, 1.224646799147356658E-16, -1.000000000000000000 ) ) ;
#207 = PRESENTATION_STYLE_ASSIGNMENT (( #343 ) ) ;
#208 = ADVANCED_FACE ( 'NONE', ( #67 ), #16, .F. ) ;
#209 = ORIENTED_EDGE ( 'NONE', *, *, #259, .T. ) ;
#210 = AXIS2_PLACEMENT_3D ( 'NONE', #244, #18, #338 ) ;
#211 = ADVANCED_FACE ( 'NONE', ( #332 ), #89, .F. ) ;
#212 = ORIENTED_EDGE ( 'NONE', *, *, #53, .F. ) ;
#213 = ORIENTED_EDGE ( 'NONE', *, *, #162, .T. ) ;
#214 = CARTESIAN_POINT ( 'NONE',  ( 2.008278571737366892E-14, 1.499999999999990008, 5.751938437691291206 ) ) ;
#215 = ORIENTED_EDGE ( 'NONE', *, *, #312, .F. ) ;
#216 = DIRECTION ( 'NONE',  ( 0.000000000000000000, 0.000000000000000000, 1.000000000000000000 ) ) ;
#217 =( GEOMETRIC_REPRESENTATION_CONTEXT ( 3 ) GLOBAL_UNCERTAINTY_ASSIGNED_CONTEXT ( ( #342 ) ) GLOBAL_UNIT_ASSIGNED_CONTEXT ( ( #337, #333, #148 ) ) REPRESENTATION_CONTEXT ( 'NONE', 'WORKASPACE' ) );
#218 = CYLINDRICAL_SURFACE ( 'NONE', #299, 1.499999999999992673 ) ;
#219 = EDGE_LOOP ( 'NONE', ( #26, #316 ) ) ;
#220 = SHAPE_DEFINITION_REPRESENTATION ( #341, #137 ) ;
#221 = AXIS2_PLACEMENT_3D ( 'NONE', #110, #194, #267 ) ;
#222 = CARTESIAN_POINT ( 'NONE',  ( 1.571166602479409063E-14, 1.049999999999999822, 4.499999999999997335 ) ) ;
#223 = DIRECTION ( 'NONE',  ( 3.491481338843133355E-15, -0.000000000000000000, 1.000000000000000000 ) ) ;
#224 = EDGE_CURVE ( 'NONE', #203, #97, #336, .T. ) ;
#225 = VECTOR ( 'NONE', #85, 1000.000000000000000 ) ;
#226 = PRODUCT_DEFINITION_CONTEXT ( 'detailed design', #128, 'design' ) ;
#227 = PLANE ( 'NONE',  #276 ) ;
#228 = CIRCLE ( 'NONE', #327, 1.050000000000000488 ) ;
#229 = VECTOR ( 'NONE', #46, 999.9999999999998863 ) ;
#230 = SURFACE_STYLE_FILL_AREA ( #20 ) ;
#231 = DIRECTION ( 'NONE',  ( -3.730349362740525976E-14, -1.000000000000000000, 0.000000000000000000 ) ) ;
#232 = DIRECTION ( 'NONE',  ( 3.491481338843133355E-15, -0.000000000000000000, 1.000000000000000000 ) ) ;
#233 = ORIENTED_EDGE ( 'NONE', *, *, #21, .T. ) ;
#234 = EDGE_CURVE ( 'NONE', #318, #320, #149, .T. ) ;
#235 = VERTEX_POINT ( 'NONE', #274 ) ;
#236 = VECTOR ( 'NONE', #178, 1000.000000000000227 ) ;
#237 = ORIENTED_EDGE ( 'NONE', *, *, #53, .T. ) ;
#238 = ADVANCED_FACE ( 'NONE', ( #40 ), #151, .T. ) ;
#239 = VERTEX_POINT ( 'NONE', #90 ) ;
#240 = ORIENTED_EDGE ( 'NONE', *, *, #234, .F. ) ;
#241 = DIRECTION ( 'NONE',  ( 3.491481338843133355E-15, -1.224646799147353207E-16, 1.000000000000000000 ) ) ;
#242 = FILL_AREA_STYLE ('',( #197 ) ) ;
#243 = MECHANICAL_DESIGN_GEOMETRIC_PRESENTATION_REPRESENTATION (  '', ( #340 ), #217 ) ;
#244 = CARTESIAN_POINT ( 'NONE',  ( 1.571166602479409063E-14, 0.000000000000000000, 4.499999999999997335 ) ) ;
#245 = AXIS2_PLACEMENT_3D ( 'NONE', #172, #304, #124 ) ;
#246 = EDGE_CURVE ( 'NONE', #235, #97, #200, .T. ) ;
#247 = PRODUCT_RELATED_PRODUCT_CATEGORY ( 'part', '', ( #190 ) ) ;
#248 = CARTESIAN_POINT ( 'NONE',  ( 1.836970198721014403E-16, -1.499999999999992673, -1.836970198721027222E-16 ) ) ;
#249 =( NAMED_UNIT ( * ) SI_UNIT ( $, .STERADIAN. ) SOLID_ANGLE_UNIT ( ) );
#250 = FILL_AREA_STYLE ('',( #47 ) ) ;
#251 = EDGE_CURVE ( 'NONE', #104, #318, #305, .T. ) ;
#252 = ORIENTED_EDGE ( 'NONE', *, *, #271, .F. ) ;
#253 = APPLICATION_PROTOCOL_DEFINITION ( 'draft international standard', 'automotive_design', 1998, #92 ) ;
#254 =( NAMED_UNIT ( * ) PLANE_ANGLE_UNIT ( ) SI_UNIT ( $, .RADIAN. ) );
#255 = ORIENTED_EDGE ( 'NONE', *, *, #121, .T. ) ;
#256 = CLOSED_SHELL ( 'NONE', ( #302, #7, #78, #117, #17, #130, #150, #171 ) ) ;
#257 = VERTEX_POINT ( 'NONE', #98 ) ;
#258 = CONICAL_SURFACE ( 'NONE', #146, 1.050000000000000266, 0.3450620389298178492 ) ;
#259 = EDGE_CURVE ( 'NONE', #48, #203, #339, .T. ) ;
#260 = ORIENTED_EDGE ( 'NONE', *, *, #335, .F. ) ;
#261 = DIRECTION ( 'NONE',  ( -3.491481338843133355E-15, 1.224646799147353207E-16, -1.000000000000000000 ) ) ;
#262 = ORIENTED_EDGE ( 'NONE', *, *, #271, .T. ) ;
#263 = EDGE_CURVE ( 'NONE', #28, #257, #115, .T. ) ;
#264 = FACE_OUTER_BOUND ( 'NONE', #180, .T. ) ;
#265 = PRESENTATION_LAYER_ASSIGNMENT (  '', '', ( #328 ) ) ;
#266 = PLANE ( 'NONE',  #93 ) ;
#267 = DIRECTION ( 'NONE',  ( 1.000000000000000000, 0.000000000000000000, -3.304235192336775117E-15 ) ) ;
#268 = CARTESIAN_POINT ( 'NONE',  ( -3.028377322213058170E-30, 0.000000000000000000, -8.673617379884035472E-16 ) ) ;
#269 = UNCERTAINTY_MEASURE_WITH_UNIT (LENGTH_MEASURE( 1.000000000000000082E-05 ), #99, 'distance_accuracy_value', 'NONE');
#270 = VECTOR ( 'NONE', #60, 1000.000000000000000 ) ;
#271 = EDGE_CURVE ( 'NONE', #97, #203, #204, .T. ) ;
#272 = AXIS2_PLACEMENT_3D ( 'NONE', #222, #329, #63 ) ;
#273 = DIRECTION ( 'NONE',  ( 1.000000000000000000, 0.000000000000000000, -3.491481338843133355E-15 ) ) ;
#274 = CARTESIAN_POINT ( 'NONE',  ( 1.805336833797516646E-14, 1.049999999999999822, 4.499999999999997335 ) ) ;
#275 = CARTESIAN_POINT ( 'NONE',  ( -1.049999999999984057, 1.285879139104720732E-16, 4.500000000000000888 ) ) ;
#276 = AXIS2_PLACEMENT_3D ( 'NONE', #126, #95, #22 ) ;
#277 = VECTOR ( 'NONE', #161, 1000.000000000000000 ) ;
#278 =( GEOMETRIC_REPRESENTATION_CONTEXT ( 3 ) GLOBAL_UNCERTAINTY_ASSIGNED_CONTEXT ( ( #269 ) ) GLOBAL_UNIT_ASSIGNED_CONTEXT ( ( #99, #69, #249 ) ) REPRESENTATION_CONTEXT ( 'NONE', 'WORKASPACE' ) );
#279 = LINE ( 'NONE', #73, #229 ) ;
#280 = MANIFOLD_SOLID_BREP ( 'Corps-Déplacer/Copier1[2]', #19 ) ;
#281 = AXIS2_PLACEMENT_3D ( 'NONE', #42, #205, #96 ) ;
#282 = DIRECTION ( 'NONE',  ( -3.491481338843133355E-15, 1.224646799147353207E-16, -1.000000000000000000 ) ) ;
#283 = DIRECTION ( 'NONE',  ( 1.000000000000000000, 0.000000000000000000, -3.304235192336775906E-15 ) ) ;
#284 = ORIENTED_EDGE ( 'NONE', *, *, #71, .F. ) ;
#285 = VERTEX_POINT ( 'NONE', #157 ) ;
#286 = DIRECTION ( 'NONE',  ( 1.000000000000000000, 0.000000000000000000, 0.000000000000000000 ) ) ;
#287 = DIRECTION ( 'NONE',  ( 4.275831445896958607E-31, 1.000000000000000000, 1.224646799147353207E-16 ) ) ;
#288 = ORIENTED_EDGE ( 'NONE', *, *, #246, .T. ) ;
#289 = CARTESIAN_POINT ( 'NONE',  ( 1.326762908760390423E-13, -4.653657836759941941E-15, 38.00000000000000000 ) ) ;
#290 = AXIS2_PLACEMENT_3D ( 'NONE', #289, #297, #111 ) ;
#291 = MECHANICAL_DESIGN_GEOMETRIC_PRESENTATION_REPRESENTATION (  '', ( #330 ), #278 ) ;
#292 = DIRECTION ( 'NONE',  ( -3.491481338843133355E-15, 1.224646799147353207E-16, -1.000000000000000000 ) ) ;
#293 = ORIENTED_EDGE ( 'NONE', *, *, #263, .F. ) ;
#294 =( NAMED_UNIT ( * ) SI_UNIT ( $, .STERADIAN. ) SOLID_ANGLE_UNIT ( ) );
#295 = DIRECTION ( 'NONE',  ( 3.819167204710537868E-14, -1.000000000000000000, 0.000000000000000000 ) ) ;
#296 = ORIENTED_EDGE ( 'NONE', *, *, #251, .T. ) ;
#297 = DIRECTION ( 'NONE',  ( 3.491481338843133355E-15, -1.224646799147353207E-16, 1.000000000000000000 ) ) ;
#298 = DIRECTION ( 'NONE',  ( 4.275831445896958607E-31, 1.000000000000000000, 1.224646799147353207E-16 ) ) ;
#299 = AXIS2_PLACEMENT_3D ( 'NONE', #160, #261, #287 ) ;
#300 = DIRECTION ( 'NONE',  ( -3.491481338843133355E-15, 1.224646799147353207E-16, -1.000000000000000000 ) ) ;
#301 = DIRECTION ( 'NONE',  ( 0.000000000000000000, -1.000000000000000000, 0.000000000000000000 ) ) ;
#302 = ADVANCED_FACE ( 'NONE', ( #196 ), #122, .T. ) ;
#303 = DIRECTION ( 'NONE',  ( 0.000000000000000000, 1.000000000000000000, 0.000000000000000000 ) ) ;
#304 = DIRECTION ( 'NONE',  ( -3.491481338843133355E-15, 1.224646799147356658E-16, -1.000000000000000000 ) ) ;
#305 = CIRCLE ( 'NONE', #281, 1.050000000000000488 ) ;
#306 = DIRECTION ( 'NONE',  ( 3.491481338843133355E-15, -0.000000000000000000, 1.000000000000000000 ) ) ;
#307 = CARTESIAN_POINT ( 'NONE',  ( 1.584025393870456443E-14, 1.049999999999999822, 4.499999999999997335 ) ) ;
#308 = CARTESIAN_POINT ( 'NONE',  ( -1.050000000000000488, 1.285879139104731086E-16, 2.798693667796888054E-15 ) ) ;
#309 = CARTESIAN_POINT ( 'NONE',  ( 1.571166602479409063E-14, 0.000000000000000000, 4.499999999999997335 ) ) ;
#310 = AXIS2_PLACEMENT_3D ( 'NONE', #54, #107, #295 ) ;
#311 = SURFACE_SIDE_STYLE ('',( #230 ) ) ;
#312 = EDGE_CURVE ( 'NONE', #6, #203, #39, .T. ) ;
#313 = CARTESIAN_POINT ( 'NONE',  ( 1.571166602479409063E-14, 0.000000000000000000, 4.499999999999997335 ) ) ;
#314 = VECTOR ( 'NONE', #306, 1000.000000000000000 ) ;
#315 = EDGE_LOOP ( 'NONE', ( #296, #106, #182, #212 ) ) ;
#316 = ORIENTED_EDGE ( 'NONE', *, *, #166, .T. ) ;
#317 = CARTESIAN_POINT ( 'NONE',  ( 1.316288464743860959E-13, 1.499999999999988010, 37.69999999999998863 ) ) ;
#318 = VERTEX_POINT ( 'NONE', #308 ) ;
#319 = CARTESIAN_POINT ( 'NONE',  ( 1.050000000000000488, 0.000000000000000000, -4.533417143773695937E-15 ) ) ;
#320 = VERTEX_POINT ( 'NONE', #275 ) ;
#321 = AXIS2_PLACEMENT_3D ( 'NONE', #177, #191, #303 ) ;
#322 = LINE ( 'NONE', #140, #277 ) ;
#323 = EDGE_LOOP ( 'NONE', ( #29, #260, #209, #189 ) ) ;
#324 = EDGE_CURVE ( 'NONE', #257, #6, #279, .T. ) ;
#325 = LINE ( 'NONE', #87, #270 ) ;
#326 = PRESENTATION_STYLE_ASSIGNMENT (( #147 ) ) ;
#327 = AXIS2_PLACEMENT_3D ( 'NONE', #268, #331, #181 ) ;
#328 = STYLED_ITEM ( 'NONE', ( #207 ), #175 ) ;
#329 = DIRECTION ( 'NONE',  ( -3.491481338843133355E-15, 0.000000000000000000, -1.000000000000000000 ) ) ;
#330 = STYLED_ITEM ( 'NONE', ( #132 ), #137 ) ;
#331 = DIRECTION ( 'NONE',  ( 3.491481338843133355E-15, -0.000000000000000000, 1.000000000000000000 ) ) ;
#332 = FACE_OUTER_BOUND ( 'NONE', #74, .T. ) ;
#333 =( NAMED_UNIT ( * ) PLANE_ANGLE_UNIT ( ) SI_UNIT ( $, .RADIAN. ) );
#334 = CARTESIAN_POINT ( 'NONE',  ( 2.008278571737366892E-14, -7.044092996611266244E-16, 5.751938437691291206 ) ) ;
#335 = EDGE_CURVE ( 'NONE', #48, #235, #168, .T. ) ;
#336 = CIRCLE ( 'NONE', #156, 1.499999999999990674 ) ;
#337 =( LENGTH_UNIT ( ) NAMED_UNIT ( * ) SI_UNIT ( .MILLI., .METRE. ) );
#338 = DIRECTION ( 'NONE',  ( 1.000000000000000000, 0.000000000000000000, -3.304235192336775117E-15 ) ) ;
#339 = LINE ( 'NONE', #186, #225 ) ;
#340 = STYLED_ITEM ( 'NONE', ( #326 ), #280 ) ;
#341 = PRODUCT_DEFINITION_SHAPE ( 'NONE', 'NONE',  #120 ) ;
#342 = UNCERTAINTY_MEASURE_WITH_UNIT (LENGTH_MEASURE( 1.000000000000000082E-05 ), #337, 'distance_accuracy_value', 'NONE');
#343 = SURFACE_STYLE_USAGE ( .BOTH. , #94 ) ;
ENDSEC;
END-ISO-10303-21;
