ISO-10303-21;
HEADER;
FILE_DESCRIPTION (( 'STEP AP203' ),
    '1' );
FILE_NAME ('952767.step',
    '2021-11-30T10:47:31',
    ( '' ),
    ( '' ),
    'SwSTEP 2.0',
    'SolidWorks 2019',
    '' );
FILE_SCHEMA (( 'CONFIG_CONTROL_DESIGN' ));
ENDSEC;

DATA;
#1 = FACE_OUTER_BOUND ( 'NONE', #276, .T. ) ;
#2 = SHAPE_DEFINITION_REPRESENTATION ( #60, #154 ) ;
#3 = DIRECTION ( 'NONE',  ( 0.0000000000000000000, 1.000000000000000000, 0.0000000000000000000 ) ) ;
#4 = DIRECTION ( 'NONE',  ( -4.355665158810185095E-31, -1.000000000000000000, -1.226010749135512617E-16 ) ) ;
#5 = FACE_OUTER_BOUND ( 'NONE', #138, .T. ) ;
#6 = CIRCLE ( 'NONE', #166, 4.750000000000007994 ) ;
#7 = VERTEX_POINT ( 'NONE', #232 ) ;
#8 = ORGANIZATION ( 'UNSPECIFIED', 'UNSPECIFIED', '' ) ;
#9 = EDGE_LOOP ( 'NONE', ( #145 ) ) ;
#10 = ORIENTED_EDGE ( 'NONE', *, *, #14, .F. ) ;
#11 = PERSON_AND_ORGANIZATION ( #224, #8 ) ;
#12 = ORIENTED_EDGE ( 'NONE', *, *, #24, .T. ) ;
#13 = DATE_TIME_ROLE ( 'creation_date' ) ;
#14 = EDGE_CURVE ( 'NONE', #89, #89, #236, .T. ) ;
#15 = ORIENTED_EDGE ( 'NONE', *, *, #24, .F. ) ;
#16 = PERSON_AND_ORGANIZATION ( #224, #8 ) ;
#17 = CARTESIAN_POINT ( 'NONE',  ( 1.396592535537251370E-15, -4.898587196589405680E-17, 0.3999999999999994116 ) ) ;
#18 = DATE_AND_TIME ( #153, #190 ) ;
#19 = FACE_BOUND ( 'NONE', #256, .T. ) ;
#20 = ADVANCED_FACE ( 'NONE', ( #212, #109 ), #143, .T. ) ;
#21 = CIRCLE ( 'NONE', #70, 5.305999999999997385 ) ;
#22 = FACE_OUTER_BOUND ( 'NONE', #107, .T. ) ;
#23 = DIRECTION ( 'NONE',  ( -3.491481338843133355E-15, 1.224646799147353207E-16, -1.000000000000000000 ) ) ;
#24 = EDGE_CURVE ( 'NONE', #202, #202, #132, .T. ) ;
#25 = FACE_OUTER_BOUND ( 'NONE', #9, .T. ) ;
#26 = APPROVAL_PERSON_ORGANIZATION ( #242, #76, #218 ) ;
#27 =( NAMED_UNIT ( * ) SI_UNIT ( $, .STERADIAN. ) SOLID_ANGLE_UNIT ( ) );
#28 = CC_DESIGN_PERSON_AND_ORGANIZATION_ASSIGNMENT ( #128, #169, ( #229 ) ) ;
#29 = LOCAL_TIME ( 11, 47, 31.00000000000000000, #39 ) ;
#30 = DIRECTION ( 'NONE',  ( 4.275831445896958607E-31, 1.000000000000000000, 1.224646799147353207E-16 ) ) ;
#31 = ORIENTED_EDGE ( 'NONE', *, *, #37, .T. ) ;
#32 = CARTESIAN_POINT ( 'NONE',  ( 6.970051266636016400E-14, 4.749999999999989342, 19.96302024900832350 ) ) ;
#33 = FACE_OUTER_BOUND ( 'NONE', #124, .T. ) ;
#34 = EDGE_LOOP ( 'NONE', ( #74 ) ) ;
#35 =( GEOMETRIC_REPRESENTATION_CONTEXT ( 3 ) GLOBAL_UNCERTAINTY_ASSIGNED_CONTEXT ( ( #75 ) ) GLOBAL_UNIT_ASSIGNED_CONTEXT ( ( #158, #136, #27 ) ) REPRESENTATION_CONTEXT ( 'NONE', 'WORKASPACE' ) );
#36 = DATE_AND_TIME ( #82, #106 ) ;
#37 = EDGE_CURVE ( 'NONE', #268, #268, #151, .T. ) ;
#38 = EDGE_LOOP ( 'NONE', ( #57 ) ) ;
#39 = COORDINATED_UNIVERSAL_TIME_OFFSET ( 1, 0, .AHEAD. ) ;
#40 = FACE_OUTER_BOUND ( 'NONE', #213, .T. ) ;
#41 = AXIS2_PLACEMENT_3D ( 'NONE', #69, #226, #251 ) ;
#42 = ADVANCED_FACE ( 'NONE', ( #86 ), #168, .F. ) ;
#43 = DIRECTION ( 'NONE',  ( 3.491481338843133355E-15, -1.224646799147353207E-16, 1.000000000000000000 ) ) ;
#44 = DIRECTION ( 'NONE',  ( 3.491481338843133355E-15, -1.224646799147353207E-16, 1.000000000000000000 ) ) ;
#45 = CARTESIAN_POINT ( 'NONE',  ( 6.970051266636016400E-14, -2.444764884926183740E-15, 19.96302024900832350 ) ) ;
#46 = AXIS2_PLACEMENT_3D ( 'NONE', #130, #58, #129 ) ;
#47 = DIRECTION ( 'NONE',  ( -3.491481338843133355E-15, 1.224646799147353207E-16, -1.000000000000000000 ) ) ;
#48 = APPLICATION_PROTOCOL_DEFINITION ( 'international standard', 'config_control_design', 1994, #183 ) ;
#49 = CLOSED_SHELL ( 'NONE', ( #64, #93, #172, #261, #87, #178, #223 ) ) ;
#50 = AXIS2_PLACEMENT_3D ( 'NONE', #184, #120, #208 ) ;
#51 = CARTESIAN_POINT ( 'NONE',  ( 4.608755367272936534E-13, 4.999999999999984013, 132.0000000000000000 ) ) ;
#52 = AXIS2_PLACEMENT_3D ( 'NONE', #131, #43, #217 ) ;
#53 = ORIENTED_EDGE ( 'NONE', *, *, #257, .T. ) ;
#54 = FACE_OUTER_BOUND ( 'NONE', #162, .T. ) ;
#55 = ORIENTED_EDGE ( 'NONE', *, *, #230, .T. ) ;
#56 = SECURITY_CLASSIFICATION_LEVEL ( 'unclassified' ) ;
#57 = ORIENTED_EDGE ( 'NONE', *, *, #230, .F. ) ;
#58 = DIRECTION ( 'NONE',  ( 3.491481338843133355E-15, -1.224646799147353207E-16, 1.000000000000000000 ) ) ;
#59 = APPROVAL_STATUS ( 'not_yet_approved' ) ;
#60 = PRODUCT_DEFINITION_SHAPE ( 'NONE', 'NONE',  #269 ) ;
#61 = FACE_OUTER_BOUND ( 'NONE', #100, .T. ) ;
#62 = AXIS2_PLACEMENT_3D ( 'NONE', #175, #44, #152 ) ;
#63 = CARTESIAN_POINT ( 'NONE',  ( 4.643670180661366731E-13, -1.628780242865979995E-14, 133.0000000000000000 ) ) ;
#64 = ADVANCED_FACE ( 'NONE', ( #200 ), #220, .F. ) ;
#65 = CARTESIAN_POINT ( 'NONE',  ( 0.0000000000000000000, 0.0000000000000000000, 0.0000000000000000000 ) ) ;
#66 = DIRECTION ( 'NONE',  ( -3.491481338843133355E-15, 1.224646799147353207E-16, -1.000000000000000000 ) ) ;
#67 = VERTEX_POINT ( 'NONE', #32 ) ;
#68 = CARTESIAN_POINT ( 'NONE',  ( 1.396592535537253737E-15, 5.305999999999997385, 0.4000000000000000777 ) ) ;
#69 = CARTESIAN_POINT ( 'NONE',  ( 6.633814543801952113E-14, -2.326828918379970970E-15, 19.00000000000000000 ) ) ;
#70 = AXIS2_PLACEMENT_3D ( 'NONE', #252, #233, #227 ) ;
#71 = ADVANCED_FACE ( 'NONE', ( #61 ), #225, .T. ) ;
#72 = AXIS2_PLACEMENT_3D ( 'NONE', #250, #47, #114 ) ;
#73 = CARTESIAN_POINT ( 'NONE',  ( 6.633814543801952113E-14, 5.305999999999997385, 19.00000000000000000 ) ) ;
#74 = ORIENTED_EDGE ( 'NONE', *, *, #147, .T. ) ;
#75 = UNCERTAINTY_MEASURE_WITH_UNIT (LENGTH_MEASURE( 1.000000000000000082E-05 ), #158, 'distance_accuracy_value', 'NONE');
#76 = APPROVAL ( #110, 'UNSPECIFIED' ) ;
#77 = COORDINATED_UNIVERSAL_TIME_OFFSET ( 1, 0, .AHEAD. ) ;
#78 = ADVANCED_FACE ( 'NONE', ( #265, #133 ), #113, .T. ) ;
#79 = EDGE_LOOP ( 'NONE', ( #163 ) ) ;
#80 = CALENDAR_DATE ( 2021, 30, 11 ) ;
#81 = APPROVAL_PERSON_ORGANIZATION ( #11, #105, #282 ) ;
#82 = CALENDAR_DATE ( 2021, 30, 11 ) ;
#83 = DIRECTION ( 'NONE',  ( -3.491481338843133355E-15, 1.224646799147353207E-16, -1.000000000000000000 ) ) ;
#84 = DIRECTION ( 'NONE',  ( 4.275831445896958607E-31, 1.000000000000000000, 1.224646799147353207E-16 ) ) ;
#85 = DIRECTION ( 'NONE',  ( 0.0000000000000000000, 1.000000000000000000, 0.0000000000000000000 ) ) ;
#86 = FACE_OUTER_BOUND ( 'NONE', #231, .T. ) ;
#87 = ADVANCED_FACE ( 'NONE', ( #111, #157 ), #156, .T. ) ;
#88 = CYLINDRICAL_SURFACE ( 'NONE', #221, 4.750000000000000000 ) ;
#89 = VERTEX_POINT ( 'NONE', #73 ) ;
#90 = LOCAL_TIME ( 11, 47, 31.00000000000000000, #142 ) ;
#91 = VERTEX_POINT ( 'NONE', #181 ) ;
#92 = EDGE_CURVE ( 'NONE', #7, #7, #126, .T. ) ;
#93 = ADVANCED_FACE ( 'NONE', ( #1, #19 ), #112, .T. ) ;
#94 = DIRECTION ( 'NONE',  ( -3.491481338843133355E-15, 1.224646799147353207E-16, -1.000000000000000000 ) ) ;
#95 = AXIS2_PLACEMENT_3D ( 'NONE', #17, #245, #4 ) ;
#96 = AXIS2_PLACEMENT_3D ( 'NONE', #45, #23, #3 ) ;
#97 = VERTEX_POINT ( 'NONE', #204 ) ;
#98 = ORIENTED_EDGE ( 'NONE', *, *, #257, .F. ) ;
#99 = CARTESIAN_POINT ( 'NONE',  ( 3.037588764793525640E-13, -1.040834085586084257E-14, 87.00000000000000000 ) ) ;
#100 = EDGE_LOOP ( 'NONE', ( #10 ) ) ;
#101 = APPLICATION_PROTOCOL_DEFINITION ( 'international standard', 'config_control_design', 1994, #248 ) ;
#102 = PERSON_AND_ORGANIZATION ( #224, #8 ) ;
#103 = EDGE_LOOP ( 'NONE', ( #55 ) ) ;
#104 = COORDINATED_UNIVERSAL_TIME_OFFSET ( 1, 0, .AHEAD. ) ;
#105 = APPROVAL ( #59, 'UNSPECIFIED' ) ;
#106 = LOCAL_TIME ( 11, 47, 31.00000000000000000, #77 ) ;
#107 = EDGE_LOOP ( 'NONE', ( #164 ) ) ;
#108 = APPROVAL_ROLE ( '' ) ;
#109 = FACE_OUTER_BOUND ( 'NONE', #103, .T. ) ;
#110 = APPROVAL_STATUS ( 'not_yet_approved' ) ;
#111 = FACE_OUTER_BOUND ( 'NONE', #79, .T. ) ;
#112 = CONICAL_SURFACE ( 'NONE', #96, 4.749999999999992006, 0.5235987755982928205 ) ;
#113 = CYLINDRICAL_SURFACE ( 'NONE', #117, 5.305999999999998273 ) ;
#114 = DIRECTION ( 'NONE',  ( 0.0000000000000000000, 1.000000000000000000, 0.0000000000000000000 ) ) ;
#115 = CC_DESIGN_PERSON_AND_ORGANIZATION_ASSIGNMENT ( #102, #211, ( #203 ) ) ;
#116 = DIRECTION ( 'NONE',  ( 4.275831445896958607E-31, 1.000000000000000000, 1.224646799147353207E-16 ) ) ;
#117 = AXIS2_PLACEMENT_3D ( 'NONE', #65, #149, #84 ) ;
#118 = TOROIDAL_SURFACE ( 'NONE', #258, 6.750000000000007994, 2.000000000000004441 ) ;
#119 = PLANE ( 'NONE',  #205 ) ;
#120 = DIRECTION ( 'NONE',  ( 0.0000000000000000000, 0.0000000000000000000, 1.000000000000000000 ) ) ;
#121 = APPROVAL ( #240, 'UNSPECIFIED' ) ;
#122 = PERSON_AND_ORGANIZATION ( #224, #8 ) ;
#123 = DIRECTION ( 'NONE',  ( 0.0000000000000000000, 1.000000000000000000, 0.0000000000000000000 ) ) ;
#124 = EDGE_LOOP ( 'NONE', ( #186 ) ) ;
#125 = APPROVAL_DATE_TIME ( #146, #105 ) ;
#126 = CIRCLE ( 'NONE', #144, 4.999999999999993783 ) ;
#127 = FACE_BOUND ( 'NONE', #239, .T. ) ;
#128 = PERSON_AND_ORGANIZATION ( #224, #8 ) ;
#129 = DIRECTION ( 'NONE',  ( -4.275831445896958607E-31, -1.000000000000000000, -1.224646799147353207E-16 ) ) ;
#130 = CARTESIAN_POINT ( 'NONE',  ( 6.633814543801952113E-14, 3.978862703401904106E-32, 19.00000000000000000 ) ) ;
#131 = CARTESIAN_POINT ( 'NONE',  ( 6.633814543801952113E-14, 3.978862703401904106E-32, 19.00000000000000000 ) ) ;
#132 = CIRCLE ( 'NONE', #271, 5.075059892324150113 ) ;
#133 = FACE_OUTER_BOUND ( 'NONE', #189, .T. ) ;
#134 = CLOSED_SHELL ( 'NONE', ( #42, #20, #78, #71 ) ) ;
#135 = CIRCLE ( 'NONE', #216, 4.749999999999992006 ) ;
#136 =( NAMED_UNIT ( * ) PLANE_ANGLE_UNIT ( ) SI_UNIT ( $, .RADIAN. ) );
#137 = DESIGN_CONTEXT ( 'detailed design', #248, 'design' ) ;
#138 = EDGE_LOOP ( 'NONE', ( #207 ) ) ;
#139 = DIRECTION ( 'NONE',  ( -3.491481338843133355E-15, 1.224646799147353207E-16, -1.000000000000000000 ) ) ;
#140 = PERSON_AND_ORGANIZATION ( #224, #8 ) ;
#141 = CARTESIAN_POINT ( 'NONE',  ( 6.633814543801952113E-14, -2.326828918379970970E-15, 19.00000000000000000 ) ) ;
#142 = COORDINATED_UNIVERSAL_TIME_OFFSET ( 1, 0, .AHEAD. ) ;
#143 = CONICAL_SURFACE ( 'NONE', #95, 5.305999999999997385, 0.5235987755982930425 ) ;
#144 = AXIS2_PLACEMENT_3D ( 'NONE', #219, #66, #193 ) ;
#145 = ORIENTED_EDGE ( 'NONE', *, *, #92, .T. ) ;
#146 = DATE_AND_TIME ( #80, #90 ) ;
#147 = EDGE_CURVE ( 'NONE', #201, #201, #281, .T. ) ;
#148 = DATE_AND_TIME ( #165, #29 ) ;
#149 = DIRECTION ( 'NONE',  ( -3.491481338843133355E-15, 1.224646799147353207E-16, -1.000000000000000000 ) ) ;
#150 = PERSON_AND_ORGANIZATION_ROLE ( 'design_owner' ) ;
#151 = CIRCLE ( 'NONE', #249, 4.000000000000000000 ) ;
#152 = DIRECTION ( 'NONE',  ( -4.275831445896958607E-31, -1.000000000000000000, -1.224646799147353207E-16 ) ) ;
#153 = CALENDAR_DATE ( 2021, 30, 11 ) ;
#154 = ADVANCED_BREP_SHAPE_REPRESENTATION ( '952767', ( #173, #270, #50 ), #35 ) ;
#155 = DIRECTION ( 'NONE',  ( -3.491481338843133355E-15, 1.224646799147353207E-16, -1.000000000000000000 ) ) ;
#156 = CYLINDRICAL_SURFACE ( 'NONE', #272, 4.999999999999997335 ) ;
#157 = FACE_OUTER_BOUND ( 'NONE', #34, .T. ) ;
#158 =( LENGTH_UNIT ( ) NAMED_UNIT ( * ) SI_UNIT ( .MILLI., .METRE. ) );
#159 = CARTESIAN_POINT ( 'NONE',  ( 4.643670180661366731E-13, 2.999519565323690036E-32, 133.0000000000000000 ) ) ;
#160 = CARTESIAN_POINT ( 'NONE',  ( 4.643670180661366731E-13, 3.999999999999983569, 133.0000000000000000 ) ) ;
#161 = MECHANICAL_CONTEXT ( 'NONE', #183, 'mechanical' ) ;
#162 = EDGE_LOOP ( 'NONE', ( #209 ) ) ;
#163 = ORIENTED_EDGE ( 'NONE', *, *, #92, .F. ) ;
#164 = ORIENTED_EDGE ( 'NONE', *, *, #273, .F. ) ;
#165 = CALENDAR_DATE ( 2021, 30, 11 ) ;
#166 = AXIS2_PLACEMENT_3D ( 'NONE', #283, #222, #85 ) ;
#167 = EDGE_CURVE ( 'NONE', #91, #91, #6, .T. ) ;
#168 = PLANE ( 'NONE',  #62 ) ;
#169 = PERSON_AND_ORGANIZATION_ROLE ( 'classification_officer' ) ;
#170 = CARTESIAN_POINT ( 'NONE',  ( 0.0000000000000000000, 0.0000000000000000000, 0.0000000000000000000 ) ) ;
#171 = CC_DESIGN_PERSON_AND_ORGANIZATION_ASSIGNMENT ( #238, #262, ( #269 ) ) ;
#172 = ADVANCED_FACE ( 'NONE', ( #22, #5 ), #88, .T. ) ;
#173 = MANIFOLD_SOLID_BREP ( 'Corps-Déplacer/Copier1[1]', #49 ) ;
#174 = CARTESIAN_POINT ( 'NONE',  ( 4.643670180661366731E-13, -1.628780242865979995E-14, 133.0000000000000000 ) ) ;
#175 = CARTESIAN_POINT ( 'NONE',  ( -1.085005033870501768E-30, 3.805685360553989450E-32, -3.107577926307940729E-16 ) ) ;
#176 = DIRECTION ( 'NONE',  ( 4.275831445896958607E-31, 1.000000000000000000, 1.224646799147353207E-16 ) ) ;
#177 = DIRECTION ( 'NONE',  ( -3.491481338843133355E-15, 1.224646799147353207E-16, -1.000000000000000000 ) ) ;
#178 = ADVANCED_FACE ( 'NONE', ( #40, #127 ), #237, .T. ) ;
#179 = LOCAL_TIME ( 11, 47, 31.00000000000000000, #104 ) ;
#180 = VERTEX_POINT ( 'NONE', #68 ) ;
#181 = CARTESIAN_POINT ( 'NONE',  ( 3.037588764793526145E-13, 4.749999999999997335, 87.00000000000001421 ) ) ;
#182 = CIRCLE ( 'NONE', #41, 5.306000000000000050 ) ;
#183 = APPLICATION_CONTEXT ( 'configuration controlled 3d designs of mechanical parts and assemblies' ) ;
#184 = CARTESIAN_POINT ( 'NONE',  ( 0.0000000000000000000, 0.0000000000000000000, 0.0000000000000000000 ) ) ;
#185 = DIRECTION ( 'NONE',  ( 0.0000000000000000000, 1.000000000000000000, 0.0000000000000000000 ) ) ;
#186 = ORIENTED_EDGE ( 'NONE', *, *, #37, .F. ) ;
#187 = DATE_AND_TIME ( #188, #179 ) ;
#188 = CALENDAR_DATE ( 2021, 30, 11 ) ;
#189 = EDGE_LOOP ( 'NONE', ( #191 ) ) ;
#190 = LOCAL_TIME ( 11, 47, 31.00000000000000000, #259 ) ;
#191 = ORIENTED_EDGE ( 'NONE', *, *, #14, .T. ) ;
#192 = APPROVAL_DATE_TIME ( #36, #121 ) ;
#193 = DIRECTION ( 'NONE',  ( 0.0000000000000000000, 1.000000000000000000, 0.0000000000000000000 ) ) ;
#194 = APPROVAL_DATE_TIME ( #18, #76 ) ;
#195 = CARTESIAN_POINT ( 'NONE',  ( -2.170010067741003536E-30, 7.611370721107978901E-32, -6.215155852615881458E-16 ) ) ;
#196 = PRODUCT ( '952767', '952767', '', ( #161 ) ) ;
#197 = AXIS2_PLACEMENT_3D ( 'NONE', #63, #155, #246 ) ;
#198 = DIRECTION ( 'NONE',  ( 0.0000000000000000000, 1.000000000000000000, 0.0000000000000000000 ) ) ;
#199 = CC_DESIGN_DATE_AND_TIME_ASSIGNMENT ( #148, #13, ( #269 ) ) ;
#200 = FACE_OUTER_BOUND ( 'NONE', #241, .T. ) ;
#201 = VERTEX_POINT ( 'NONE', #51 ) ;
#202 = VERTEX_POINT ( 'NONE', #274 ) ;
#203 = PRODUCT_DEFINITION_FORMATION_WITH_SPECIFIED_SOURCE ( 'ANY', '', #196, .NOT_KNOWN. ) ;
#204 = CARTESIAN_POINT ( 'NONE',  ( 6.633814543801952113E-14, 5.305999999999997385, 19.00000000000000000 ) ) ;
#205 = AXIS2_PLACEMENT_3D ( 'NONE', #159, #94, #30 ) ;
#206 = CARTESIAN_POINT ( 'NONE',  ( 6.970051266636016400E-14, -2.444764884926183740E-15, 19.96302024900832350 ) ) ;
#207 = ORIENTED_EDGE ( 'NONE', *, *, #167, .T. ) ;
#208 = DIRECTION ( 'NONE',  ( 1.000000000000000000, 0.0000000000000000000, 0.0000000000000000000 ) ) ;
#209 = ORIENTED_EDGE ( 'NONE', *, *, #167, .F. ) ;
#210 = AXIS2_PLACEMENT_3D ( 'NONE', #141, #235, #123 ) ;
#211 = PERSON_AND_ORGANIZATION_ROLE ( 'creator' ) ;
#212 = FACE_BOUND ( 'NONE', #279, .T. ) ;
#213 = EDGE_LOOP ( 'NONE', ( #255 ) ) ;
#214 = ORIENTED_EDGE ( 'NONE', *, *, #273, .T. ) ;
#215 = DATE_TIME_ROLE ( 'classification_date' ) ;
#216 = AXIS2_PLACEMENT_3D ( 'NONE', #206, #139, #185 ) ;
#217 = DIRECTION ( 'NONE',  ( -4.275831445896958607E-31, -1.000000000000000000, -1.224646799147353207E-16 ) ) ;
#218 = APPROVAL_ROLE ( '' ) ;
#219 = CARTESIAN_POINT ( 'NONE',  ( 3.071394887490858903E-13, -1.077300306903406976E-14, 87.96824583655184426 ) ) ;
#220 = PLANE ( 'NONE',  #46 ) ;
#221 = AXIS2_PLACEMENT_3D ( 'NONE', #260, #264, #243 ) ;
#222 = DIRECTION ( 'NONE',  ( -3.491481338843133355E-15, 1.224646799147353207E-16, -1.000000000000000000 ) ) ;
#223 = ADVANCED_FACE ( 'NONE', ( #33 ), #119, .F. ) ;
#224 = PERSON ( 'UNSPECIFIED', 'UNSPECIFIED', 'UNSPECIFIED', ('UNSPECIFIED'), ('UNSPECIFIED'), ('UNSPECIFIED') ) ;
#225 = PLANE ( 'NONE',  #52 ) ;
#226 = DIRECTION ( 'NONE',  ( -3.491481338843133355E-15, 1.224646799147353207E-16, -1.000000000000000000 ) ) ;
#227 = DIRECTION ( 'NONE',  ( 4.355665158810185095E-31, 1.000000000000000000, 1.226010749135512617E-16 ) ) ;
#228 = APPROVAL_PERSON_ORGANIZATION ( #16, #121, #108 ) ;
#229 = SECURITY_CLASSIFICATION ( '', '', #56 ) ;
#230 = EDGE_CURVE ( 'NONE', #180, #180, #21, .T. ) ;
#231 = EDGE_LOOP ( 'NONE', ( #12 ) ) ;
#232 = CARTESIAN_POINT ( 'NONE',  ( 3.071394887490858903E-13, 4.999999999999984013, 87.96824583655184426 ) ) ;
#233 = DIRECTION ( 'NONE',  ( -3.491481338843133355E-15, 1.224646799147353207E-16, -1.000000000000000000 ) ) ;
#234 = CC_DESIGN_PERSON_AND_ORGANIZATION_ASSIGNMENT ( #140, #150, ( #196 ) ) ;
#235 = DIRECTION ( 'NONE',  ( -3.491481338843133355E-15, 1.224646799147353207E-16, -1.000000000000000000 ) ) ;
#236 = CIRCLE ( 'NONE', #210, 5.306000000000000050 ) ;
#237 = CONICAL_SURFACE ( 'NONE', #197, 4.000000000000000000, 0.7853981633974479459 ) ;
#238 = PERSON_AND_ORGANIZATION ( #224, #8 ) ;
#239 = EDGE_LOOP ( 'NONE', ( #31 ) ) ;
#240 = APPROVAL_STATUS ( 'not_yet_approved' ) ;
#241 = EDGE_LOOP ( 'NONE', ( #53 ) ) ;
#242 = PERSON_AND_ORGANIZATION ( #224, #8 ) ;
#243 = DIRECTION ( 'NONE',  ( 4.275831445896959482E-31, 1.000000000000000000, 1.224646799147353207E-16 ) ) ;
#244 = CC_DESIGN_APPROVAL ( #121, ( #229 ) ) ;
#245 = DIRECTION ( 'NONE',  ( 3.491481338843133355E-15, -1.224646799147353207E-16, 1.000000000000000000 ) ) ;
#246 = DIRECTION ( 'NONE',  ( 0.0000000000000000000, 1.000000000000000000, 0.0000000000000000000 ) ) ;
#247 = DIRECTION ( 'NONE',  ( -3.491481338843133355E-15, 1.224646799147353207E-16, -1.000000000000000000 ) ) ;
#248 = APPLICATION_CONTEXT ( 'configuration controlled 3d designs of mechanical parts and assemblies' ) ;
#249 = AXIS2_PLACEMENT_3D ( 'NONE', #174, #263, #198 ) ;
#250 = CARTESIAN_POINT ( 'NONE',  ( 4.608755367272936534E-13, -1.616533774874506480E-14, 132.0000000000000000 ) ) ;
#251 = DIRECTION ( 'NONE',  ( 0.0000000000000000000, 1.000000000000000000, 0.0000000000000000000 ) ) ;
#252 = CARTESIAN_POINT ( 'NONE',  ( 1.396592535537251370E-15, -4.898587196589405680E-17, 0.3999999999999994116 ) ) ;
#253 = CC_DESIGN_APPROVAL ( #76, ( #203 ) ) ;
#254 = CC_DESIGN_DATE_AND_TIME_ASSIGNMENT ( #187, #215, ( #229 ) ) ;
#255 = ORIENTED_EDGE ( 'NONE', *, *, #147, .F. ) ;
#256 = EDGE_LOOP ( 'NONE', ( #214 ) ) ;
#257 = EDGE_CURVE ( 'NONE', #97, #97, #182, .T. ) ;
#258 = AXIS2_PLACEMENT_3D ( 'NONE', #99, #177, #116 ) ;
#259 = COORDINATED_UNIVERSAL_TIME_OFFSET ( 1, 0, .AHEAD. ) ;
#260 = CARTESIAN_POINT ( 'NONE',  ( 0.0000000000000000000, 0.0000000000000000000, 0.0000000000000000000 ) ) ;
#261 = ADVANCED_FACE ( 'NONE', ( #54, #25 ), #118, .F. ) ;
#262 = PERSON_AND_ORGANIZATION_ROLE ( 'creator' ) ;
#263 = DIRECTION ( 'NONE',  ( -3.491481338843133355E-15, 1.224646799147353207E-16, -1.000000000000000000 ) ) ;
#264 = DIRECTION ( 'NONE',  ( -3.491481338843133355E-15, 1.224646799147353207E-16, -1.000000000000000000 ) ) ;
#265 = FACE_OUTER_BOUND ( 'NONE', #38, .T. ) ;
#266 = DIRECTION ( 'NONE',  ( 4.275831445896959482E-31, 1.000000000000000000, 1.224646799147353207E-16 ) ) ;
#267 = CC_DESIGN_SECURITY_CLASSIFICATION ( #229, ( #203 ) ) ;
#268 = VERTEX_POINT ( 'NONE', #160 ) ;
#269 = PRODUCT_DEFINITION ( 'UNKNOWN', '', #203, #137 ) ;
#270 = MANIFOLD_SOLID_BREP ( 'Corps-Déplacer/Copier1[2]', #134 ) ;
#271 = AXIS2_PLACEMENT_3D ( 'NONE', #195, #83, #176 ) ;
#272 = AXIS2_PLACEMENT_3D ( 'NONE', #170, #247, #266 ) ;
#273 = EDGE_CURVE ( 'NONE', #67, #67, #135, .T. ) ;
#274 = CARTESIAN_POINT ( 'NONE',  ( 0.0000000000000000000, 5.075059892324150113, 0.0000000000000000000 ) ) ;
#275 = PRODUCT_RELATED_PRODUCT_CATEGORY ( 'detail', '', ( #196 ) ) ;
#276 = EDGE_LOOP ( 'NONE', ( #98 ) ) ;
#277 = PERSON_AND_ORGANIZATION_ROLE ( 'design_supplier' ) ;
#278 = CC_DESIGN_PERSON_AND_ORGANIZATION_ASSIGNMENT ( #122, #277, ( #203 ) ) ;
#279 = EDGE_LOOP ( 'NONE', ( #15 ) ) ;
#280 = CC_DESIGN_APPROVAL ( #105, ( #269 ) ) ;
#281 = CIRCLE ( 'NONE', #72, 5.000000000000000000 ) ;
#282 = APPROVAL_ROLE ( '' ) ;
#283 = CARTESIAN_POINT ( 'NONE',  ( 3.037588764793526145E-13, -1.065442715258197367E-14, 87.00000000000001421 ) ) ;
ENDSEC;
END-ISO-10303-21;
