ISO-10303-21;
HEADER;
FILE_DESCRIPTION (( 'STEP AP203' ),
    '1' );
FILE_NAME ('952766.step',
    '2021-11-30T10:47:30',
    ( '' ),
    ( '' ),
    'SwSTEP 2.0',
    'SolidWorks 2019',
    '' );
FILE_SCHEMA (( 'CONFIG_CONTROL_DESIGN' ));
ENDSEC;

DATA;
#1 = FACE_OUTER_BOUND ( 'NONE', #42, .T. ) ;
#2 = COORDINATED_UNIVERSAL_TIME_OFFSET ( 1, 0, .AHEAD. ) ;
#3 = DIRECTION ( 'NONE',  ( 4.275831445896958607E-31, 1.000000000000000000, 1.224646799147353207E-16 ) ) ;
#4 = CIRCLE ( 'NONE', #181, 5.256000000000000227 ) ;
#5 = COORDINATED_UNIVERSAL_TIME_OFFSET ( 1, 0, .AHEAD. ) ;
#6 = EDGE_LOOP ( 'NONE', ( #50 ) ) ;
#7 = APPROVAL_ROLE ( '' ) ;
#8 = ADVANCED_FACE ( 'NONE', ( #179, #74 ), #86, .F. ) ;
#9 = ORIENTED_EDGE ( 'NONE', *, *, #67, .T. ) ;
#10 = ORIENTED_EDGE ( 'NONE', *, *, #174, .T. ) ;
#11 = CC_DESIGN_APPROVAL ( #51, ( #193 ) ) ;
#12 = DIRECTION ( 'NONE',  ( 4.397100329651225720E-31, 1.000000000000000000, 1.237673712882996580E-16 ) ) ;
#13 = DIRECTION ( 'NONE',  ( 0.0000000000000000000, 1.000000000000000000, 0.0000000000000000000 ) ) ;
#14 = DIRECTION ( 'NONE',  ( 4.275831445896958607E-31, 1.000000000000000000, 1.224646799147353207E-16 ) ) ;
#15 = FACE_OUTER_BOUND ( 'NONE', #71, .T. ) ;
#16 = CC_DESIGN_PERSON_AND_ORGANIZATION_ASSIGNMENT ( #130, #194, ( #229 ) ) ;
#17 = CARTESIAN_POINT ( 'NONE',  ( 0.0000000000000000000, 0.0000000000000000000, 0.0000000000000000000 ) ) ;
#18 = PERSON_AND_ORGANIZATION ( #165, #28 ) ;
#19 = APPROVAL_PERSON_ORGANIZATION ( #73, #51, #7 ) ;
#20 = VERTEX_POINT ( 'NONE', #21 ) ;
#21 = CARTESIAN_POINT ( 'NONE',  ( 3.037588764793526145E-13, 4.749999999999997335, 87.00000000000001421 ) ) ;
#22 =( NAMED_UNIT ( * ) SI_UNIT ( $, .STERADIAN. ) SOLID_ANGLE_UNIT ( ) );
#23 = CIRCLE ( 'NONE', #33, 5.255999999999997563 ) ;
#24 = ORIENTED_EDGE ( 'NONE', *, *, #138, .F. ) ;
#25 = PERSON_AND_ORGANIZATION_ROLE ( 'creator' ) ;
#26 = EDGE_LOOP ( 'NONE', ( #182 ) ) ;
#27 = ORIENTED_EDGE ( 'NONE', *, *, #227, .F. ) ;
#28 = ORGANIZATION ( 'UNSPECIFIED', 'UNSPECIFIED', '' ) ;
#29 = EDGE_CURVE ( 'NONE', #101, #101, #107, .T. ) ;
#30 = CARTESIAN_POINT ( 'NONE',  ( 6.939814151273241357E-14, -2.434159132538934875E-15, 19.87641770862987656 ) ) ;
#31 = ORIENTED_EDGE ( 'NONE', *, *, #115, .T. ) ;
#32 = FACE_OUTER_BOUND ( 'NONE', #137, .T. ) ;
#33 = AXIS2_PLACEMENT_3D ( 'NONE', #250, #117, #12 ) ;
#34 = DIRECTION ( 'NONE',  ( -3.491481338843133355E-15, 1.224646799147353207E-16, -1.000000000000000000 ) ) ;
#35 = DIRECTION ( 'NONE',  ( -3.491481338843133355E-15, 1.224646799147353207E-16, -1.000000000000000000 ) ) ;
#36 = DIRECTION ( 'NONE',  ( 0.0000000000000000000, 1.000000000000000000, 0.0000000000000000000 ) ) ;
#37 = APPROVAL_PERSON_ORGANIZATION ( #18, #70, #210 ) ;
#38 = ADVANCED_FACE ( 'NONE', ( #196, #218 ), #68, .T. ) ;
#39 = DIRECTION ( 'NONE',  ( -3.491481338843133355E-15, 1.224646799147353207E-16, -1.000000000000000000 ) ) ;
#40 = VERTEX_POINT ( 'NONE', #169 ) ;
#41 = DESIGN_CONTEXT ( 'detailed design', #72, 'design' ) ;
#42 = EDGE_LOOP ( 'NONE', ( #10 ) ) ;
#43 = CALENDAR_DATE ( 2021, 30, 11 ) ;
#44 = AXIS2_PLACEMENT_3D ( 'NONE', #144, #225, #14 ) ;
#45 = APPROVAL_ROLE ( '' ) ;
#46 = CARTESIAN_POINT ( 'NONE',  ( 4.643670180661366731E-13, 3.999999999999983569, 133.0000000000000000 ) ) ;
#47 = DIRECTION ( 'NONE',  ( -4.275831445896958607E-31, -1.000000000000000000, -1.224646799147353207E-16 ) ) ;
#48 = EDGE_LOOP ( 'NONE', ( #27 ) ) ;
#49 = CALENDAR_DATE ( 2021, 30, 11 ) ;
#50 = ORIENTED_EDGE ( 'NONE', *, *, #29, .F. ) ;
#51 = APPROVAL ( #262, 'UNSPECIFIED' ) ;
#52 = EDGE_LOOP ( 'NONE', ( #266 ) ) ;
#53 = AXIS2_PLACEMENT_3D ( 'NONE', #177, #96, #132 ) ;
#54 = EDGE_LOOP ( 'NONE', ( #69 ) ) ;
#55 = FACE_OUTER_BOUND ( 'NONE', #6, .T. ) ;
#56 = CC_DESIGN_PERSON_AND_ORGANIZATION_ASSIGNMENT ( #76, #265, ( #255 ) ) ;
#57 = DIRECTION ( 'NONE',  ( 4.275831445896959482E-31, 1.000000000000000000, 1.224646799147353207E-16 ) ) ;
#58 = FACE_OUTER_BOUND ( 'NONE', #48, .T. ) ;
#59 = APPLICATION_CONTEXT ( 'configuration controlled 3d designs of mechanical parts and assemblies' ) ;
#60 = CARTESIAN_POINT ( 'NONE',  ( 6.633814543801952113E-14, -2.326828918379970970E-15, 19.00000000000000000 ) ) ;
#61 = DIRECTION ( 'NONE',  ( 4.275831445896958607E-31, 1.000000000000000000, 1.224646799147353207E-16 ) ) ;
#62 = CIRCLE ( 'NONE', #237, 4.000000000000000000 ) ;
#63 = DIRECTION ( 'NONE',  ( 1.000000000000000000, 0.0000000000000000000, 0.0000000000000000000 ) ) ;
#64 = MECHANICAL_CONTEXT ( 'NONE', #59, 'mechanical' ) ;
#65 = DATE_TIME_ROLE ( 'creation_date' ) ;
#66 = PERSON_AND_ORGANIZATION ( #165, #28 ) ;
#67 = EDGE_CURVE ( 'NONE', #233, #233, #172, .T. ) ;
#68 = CONICAL_SURFACE ( 'NONE', #202, 4.749999999999992006, 0.5235987755982930425 ) ;
#69 = ORIENTED_EDGE ( 'NONE', *, *, #223, .F. ) ;
#70 = APPROVAL ( #110, 'UNSPECIFIED' ) ;
#71 = EDGE_LOOP ( 'NONE', ( #263 ) ) ;
#72 = APPLICATION_CONTEXT ( 'configuration controlled 3d designs of mechanical parts and assemblies' ) ;
#73 = PERSON_AND_ORGANIZATION ( #165, #28 ) ;
#74 = FACE_OUTER_BOUND ( 'NONE', #245, .T. ) ;
#75 = MANIFOLD_SOLID_BREP ( 'Corps-Déplacer/Copier1[1]', #253 ) ;
#76 = PERSON_AND_ORGANIZATION ( #165, #28 ) ;
#77 = DIRECTION ( 'NONE',  ( 0.0000000000000000000, 1.000000000000000000, 0.0000000000000000000 ) ) ;
#78 = LOCAL_TIME ( 11, 47, 30.00000000000000000, #152 ) ;
#79 = DIRECTION ( 'NONE',  ( 3.491481338843133355E-15, -1.224646799147353207E-16, 1.000000000000000000 ) ) ;
#80 = CARTESIAN_POINT ( 'NONE',  ( 0.0000000000000000000, 0.0000000000000000000, 0.0000000000000000000 ) ) ;
#81 = DIRECTION ( 'NONE',  ( -3.491481338843133355E-15, 1.224646799147353207E-16, -1.000000000000000000 ) ) ;
#82 = CARTESIAN_POINT ( 'NONE',  ( 4.608755367272936534E-13, 4.999999999999984013, 132.0000000000000000 ) ) ;
#83 = DIRECTION ( 'NONE',  ( 4.275831445896958607E-31, 1.000000000000000000, 1.224646799147353454E-16 ) ) ;
#84 = CIRCLE ( 'NONE', #230, 5.256000000000000227 ) ;
#85 = ADVANCED_FACE ( 'NONE', ( #1 ), #236, .F. ) ;
#86 = TOROIDAL_SURFACE ( 'NONE', #226, 6.750000000000007994, 2.000000000000004441 ) ;
#87 = APPROVAL_STATUS ( 'not_yet_approved' ) ;
#88 = AXIS2_PLACEMENT_3D ( 'NONE', #252, #188, #271 ) ;
#89 = DATE_AND_TIME ( #282, #264 ) ;
#90 = PERSON_AND_ORGANIZATION_ROLE ( 'classification_officer' ) ;
#91 = PLANE ( 'NONE',  #207 ) ;
#92 = SECURITY_CLASSIFICATION_LEVEL ( 'unclassified' ) ;
#93 = DIRECTION ( 'NONE',  ( -3.491481338843133355E-15, 1.224646799147353207E-16, -1.000000000000000000 ) ) ;
#94 = ORIENTED_EDGE ( 'NONE', *, *, #234, .T. ) ;
#95 = PERSON_AND_ORGANIZATION ( #165, #28 ) ;
#96 = DIRECTION ( 'NONE',  ( -3.491481338843133355E-15, 1.224646799147353207E-16, -1.000000000000000000 ) ) ;
#97 = CARTESIAN_POINT ( 'NONE',  ( 3.037588764793525640E-13, -1.040834085586084257E-14, 87.00000000000000000 ) ) ;
#98 = PRODUCT_RELATED_PRODUCT_CATEGORY ( 'detail', '', ( #229 ) ) ;
#99 = PLANE ( 'NONE',  #44 ) ;
#100 = DIRECTION ( 'NONE',  ( 0.0000000000000000000, 1.000000000000000000, 0.0000000000000000000 ) ) ;
#101 = VERTEX_POINT ( 'NONE', #82 ) ;
#102 = APPROVAL_PERSON_ORGANIZATION ( #108, #268, #45 ) ;
#103 = CARTESIAN_POINT ( 'NONE',  ( -1.074315455255759411E-30, 3.768191365987442736E-32, -3.076961756329257336E-16 ) ) ;
#104 = FACE_OUTER_BOUND ( 'NONE', #220, .T. ) ;
#105 = VERTEX_POINT ( 'NONE', #190 ) ;
#106 = EDGE_LOOP ( 'NONE', ( #116 ) ) ;
#107 = CIRCLE ( 'NONE', #145, 5.000000000000000000 ) ;
#108 = PERSON_AND_ORGANIZATION ( #165, #28 ) ;
#109 = AXIS2_PLACEMENT_3D ( 'NONE', #103, #185, #147 ) ;
#110 = APPROVAL_STATUS ( 'not_yet_approved' ) ;
#111 = ORIENTED_EDGE ( 'NONE', *, *, #227, .T. ) ;
#112 = EDGE_LOOP ( 'NONE', ( #111 ) ) ;
#113 = AXIS2_PLACEMENT_3D ( 'NONE', #168, #205, #13 ) ;
#114 = DIRECTION ( 'NONE',  ( 0.0000000000000000000, 1.000000000000000000, 0.0000000000000000000 ) ) ;
#115 = EDGE_CURVE ( 'NONE', #105, #105, #124, .T. ) ;
#116 = ORIENTED_EDGE ( 'NONE', *, *, #138, .T. ) ;
#117 = DIRECTION ( 'NONE',  ( -3.491481338843133355E-15, 1.224646799147353207E-16, -1.000000000000000000 ) ) ;
#118 = CONICAL_SURFACE ( 'NONE', #88, 5.255999999999997563, 0.5235987755982930425 ) ;
#119 = PRODUCT_DEFINITION_SHAPE ( 'NONE', 'NONE',  #153 ) ;
#120 = FACE_OUTER_BOUND ( 'NONE', #106, .T. ) ;
#121 = ADVANCED_FACE ( 'NONE', ( #162 ), #91, .T. ) ;
#122 = CYLINDRICAL_SURFACE ( 'NONE', #243, 4.999999999999997335 ) ;
#123 = CYLINDRICAL_SURFACE ( 'NONE', #136, 5.255999999999998451 ) ;
#124 = CIRCLE ( 'NONE', #53, 4.999999999999993783 ) ;
#125 = FACE_OUTER_BOUND ( 'NONE', #158, .T. ) ;
#126 = ADVANCED_FACE ( 'NONE', ( #183, #104 ), #118, .T. ) ;
#127 = VERTEX_POINT ( 'NONE', #259 ) ;
#128 = LOCAL_TIME ( 11, 47, 30.00000000000000000, #173 ) ;
#129 = DIRECTION ( 'NONE',  ( 0.0000000000000000000, 0.0000000000000000000, 1.000000000000000000 ) ) ;
#130 = PERSON_AND_ORGANIZATION ( #165, #28 ) ;
#131 = LOCAL_TIME ( 11, 47, 30.00000000000000000, #2 ) ;
#132 = DIRECTION ( 'NONE',  ( 0.0000000000000000000, 1.000000000000000000, 0.0000000000000000000 ) ) ;
#133 = EDGE_LOOP ( 'NONE', ( #180 ) ) ;
#134 = DATE_AND_TIME ( #49, #187 ) ;
#135 = CARTESIAN_POINT ( 'NONE',  ( 4.608755367272936534E-13, -1.616533774874506480E-14, 132.0000000000000000 ) ) ;
#136 = AXIS2_PLACEMENT_3D ( 'NONE', #80, #206, #61 ) ;
#137 = EDGE_LOOP ( 'NONE', ( #217 ) ) ;
#138 = EDGE_CURVE ( 'NONE', #40, #40, #84, .T. ) ;
#139 = APPROVAL_DATE_TIME ( #134, #51 ) ;
#140 = DIRECTION ( 'NONE',  ( -3.491481338843133355E-15, 1.224646799147353207E-16, -1.000000000000000000 ) ) ;
#141 = CARTESIAN_POINT ( 'NONE',  ( 4.643670180661366731E-13, -1.628780242865979995E-14, 133.0000000000000000 ) ) ;
#142 = FACE_BOUND ( 'NONE', #112, .T. ) ;
#143 = CC_DESIGN_APPROVAL ( #268, ( #153 ) ) ;
#144 = CARTESIAN_POINT ( 'NONE',  ( 4.643670180661366731E-13, 2.999519565323690036E-32, 133.0000000000000000 ) ) ;
#145 = AXIS2_PLACEMENT_3D ( 'NONE', #135, #221, #267 ) ;
#146 = DIRECTION ( 'NONE',  ( 0.0000000000000000000, 1.000000000000000000, 0.0000000000000000000 ) ) ;
#147 = DIRECTION ( 'NONE',  ( -4.275831445896958607E-31, -1.000000000000000000, -1.224646799147353207E-16 ) ) ;
#148 = CIRCLE ( 'NONE', #156, 5.025059892324150290 ) ;
#149 = CC_DESIGN_PERSON_AND_ORGANIZATION_ASSIGNMENT ( #95, #90, ( #193 ) ) ;
#150 = PERSON_AND_ORGANIZATION_ROLE ( 'creator' ) ;
#151 = VERTEX_POINT ( 'NONE', #46 ) ;
#152 = COORDINATED_UNIVERSAL_TIME_OFFSET ( 1, 0, .AHEAD. ) ;
#153 = PRODUCT_DEFINITION ( 'UNKNOWN', '', #255, #41 ) ;
#154 = AXIS2_PLACEMENT_3D ( 'NONE', #270, #93, #77 ) ;
#155 =( NAMED_UNIT ( * ) PLANE_ANGLE_UNIT ( ) SI_UNIT ( $, .RADIAN. ) );
#156 = AXIS2_PLACEMENT_3D ( 'NONE', #274, #231, #83 ) ;
#157 = ADVANCED_FACE ( 'NONE', ( #247, #32 ), #164, .T. ) ;
#158 = EDGE_LOOP ( 'NONE', ( #176 ) ) ;
#159 = SHAPE_DEFINITION_REPRESENTATION ( #119, #279 ) ;
#160 = ORIENTED_EDGE ( 'NONE', *, *, #67, .F. ) ;
#161 = CONICAL_SURFACE ( 'NONE', #277, 4.000000000000000000, 0.7853981633974479459 ) ;
#162 = FACE_OUTER_BOUND ( 'NONE', #222, .T. ) ;
#163 = FACE_OUTER_BOUND ( 'NONE', #242, .T. ) ;
#164 = CYLINDRICAL_SURFACE ( 'NONE', #167, 4.750000000000000000 ) ;
#165 = PERSON ( 'UNSPECIFIED', 'UNSPECIFIED', 'UNSPECIFIED', ('UNSPECIFIED'), ('UNSPECIFIED'), ('UNSPECIFIED') ) ;
#166 = CARTESIAN_POINT ( 'NONE',  ( 6.633814543801952113E-14, -2.326828918379970970E-15, 19.00000000000000000 ) ) ;
#167 = AXIS2_PLACEMENT_3D ( 'NONE', #17, #39, #248 ) ;
#168 = CARTESIAN_POINT ( 'NONE',  ( 3.037588764793526145E-13, -1.065442715258197367E-14, 87.00000000000001421 ) ) ;
#169 = CARTESIAN_POINT ( 'NONE',  ( 6.633814543801952113E-14, 5.255999999999997563, 19.00000000000000000 ) ) ;
#170 = CARTESIAN_POINT ( 'NONE',  ( 0.0000000000000000000, 0.0000000000000000000, 0.0000000000000000000 ) ) ;
#171 = APPLICATION_PROTOCOL_DEFINITION ( 'international standard', 'config_control_design', 1994, #59 ) ;
#172 = CIRCLE ( 'NONE', #154, 4.749999999999992006 ) ;
#173 = COORDINATED_UNIVERSAL_TIME_OFFSET ( 1, 0, .AHEAD. ) ;
#174 = EDGE_CURVE ( 'NONE', #257, #257, #4, .T. ) ;
#175 = CALENDAR_DATE ( 2021, 30, 11 ) ;
#176 = ORIENTED_EDGE ( 'NONE', *, *, #115, .F. ) ;
#177 = CARTESIAN_POINT ( 'NONE',  ( 3.071394887490858903E-13, -1.077300306903406976E-14, 87.96824583655184426 ) ) ;
#178 = ADVANCED_FACE ( 'NONE', ( #163, #120 ), #123, .T. ) ;
#179 = FACE_OUTER_BOUND ( 'NONE', #54, .T. ) ;
#180 = ORIENTED_EDGE ( 'NONE', *, *, #174, .F. ) ;
#181 = AXIS2_PLACEMENT_3D ( 'NONE', #60, #189, #36 ) ;
#182 = ORIENTED_EDGE ( 'NONE', *, *, #219, .F. ) ;
#183 = FACE_BOUND ( 'NONE', #26, .T. ) ;
#184 = CC_DESIGN_DATE_AND_TIME_ASSIGNMENT ( #244, #216, ( #193 ) ) ;
#185 = DIRECTION ( 'NONE',  ( 3.491481338843133355E-15, -1.224646799147353207E-16, 1.000000000000000000 ) ) ;
#186 = PLANE ( 'NONE',  #109 ) ;
#187 = LOCAL_TIME ( 11, 47, 30.00000000000000000, #5 ) ;
#188 = DIRECTION ( 'NONE',  ( 3.491481338843133355E-15, -1.224646799147353207E-16, 1.000000000000000000 ) ) ;
#189 = DIRECTION ( 'NONE',  ( -3.491481338843133355E-15, 1.224646799147353207E-16, -1.000000000000000000 ) ) ;
#190 = CARTESIAN_POINT ( 'NONE',  ( 3.071394887490858903E-13, 4.999999999999984013, 87.96824583655184426 ) ) ;
#191 = CC_DESIGN_APPROVAL ( #70, ( #255 ) ) ;
#192 =( LENGTH_UNIT ( ) NAMED_UNIT ( * ) SI_UNIT ( .MILLI., .METRE. ) );
#193 = SECURITY_CLASSIFICATION ( '', '', #92 ) ;
#194 = PERSON_AND_ORGANIZATION_ROLE ( 'design_owner' ) ;
#195 = ADVANCED_FACE ( 'NONE', ( #125, #15 ), #122, .T. ) ;
#196 = FACE_OUTER_BOUND ( 'NONE', #133, .T. ) ;
#197 = EDGE_LOOP ( 'NONE', ( #9 ) ) ;
#198 = AXIS2_PLACEMENT_3D ( 'NONE', #170, #129, #63 ) ;
#199 = PERSON_AND_ORGANIZATION ( #165, #28 ) ;
#200 = CARTESIAN_POINT ( 'NONE',  ( 6.633814543801952113E-14, 3.941368708835358487E-32, 19.00000000000000000 ) ) ;
#201 = DIRECTION ( 'NONE',  ( -3.491481338843133355E-15, 1.224646799147353207E-16, -1.000000000000000000 ) ) ;
#202 = AXIS2_PLACEMENT_3D ( 'NONE', #30, #201, #114 ) ;
#203 = CARTESIAN_POINT ( 'NONE',  ( 6.633814543801952113E-14, 3.941368708835358487E-32, 19.00000000000000000 ) ) ;
#204 = CARTESIAN_POINT ( 'NONE',  ( 0.0000000000000000000, 0.0000000000000000000, 0.0000000000000000000 ) ) ;
#205 = DIRECTION ( 'NONE',  ( -3.491481338843133355E-15, 1.224646799147353207E-16, -1.000000000000000000 ) ) ;
#206 = DIRECTION ( 'NONE',  ( -3.491481338843133355E-15, 1.224646799147353207E-16, -1.000000000000000000 ) ) ;
#207 = AXIS2_PLACEMENT_3D ( 'NONE', #203, #209, #228 ) ;
#208 = UNCERTAINTY_MEASURE_WITH_UNIT (LENGTH_MEASURE( 1.000000000000000082E-05 ), #192, 'distance_accuracy_value', 'NONE');
#209 = DIRECTION ( 'NONE',  ( 3.491481338843133355E-15, -1.224646799147353207E-16, 1.000000000000000000 ) ) ;
#210 = APPROVAL_ROLE ( '' ) ;
#211 = ADVANCED_FACE ( 'NONE', ( #276 ), #186, .F. ) ;
#212 = APPROVAL_DATE_TIME ( #89, #268 ) ;
#213 = APPLICATION_PROTOCOL_DEFINITION ( 'international standard', 'config_control_design', 1994, #72 ) ;
#214 = ADVANCED_FACE ( 'NONE', ( #55, #142 ), #161, .T. ) ;
#215 = DATE_AND_TIME ( #43, #128 ) ;
#216 = DATE_TIME_ROLE ( 'classification_date' ) ;
#217 = ORIENTED_EDGE ( 'NONE', *, *, #223, .T. ) ;
#218 = FACE_BOUND ( 'NONE', #197, .T. ) ;
#219 = EDGE_CURVE ( 'NONE', #235, #235, #148, .T. ) ;
#220 = EDGE_LOOP ( 'NONE', ( #94 ) ) ;
#221 = DIRECTION ( 'NONE',  ( -3.491481338843133355E-15, 1.224646799147353207E-16, -1.000000000000000000 ) ) ;
#222 = EDGE_LOOP ( 'NONE', ( #24 ) ) ;
#223 = EDGE_CURVE ( 'NONE', #20, #20, #283, .T. ) ;
#224 = CC_DESIGN_SECURITY_CLASSIFICATION ( #193, ( #255 ) ) ;
#225 = DIRECTION ( 'NONE',  ( -3.491481338843133355E-15, 1.224646799147353207E-16, -1.000000000000000000 ) ) ;
#226 = AXIS2_PLACEMENT_3D ( 'NONE', #97, #140, #3 ) ;
#227 = EDGE_CURVE ( 'NONE', #151, #151, #62, .T. ) ;
#228 = DIRECTION ( 'NONE',  ( -4.275831445896958607E-31, -1.000000000000000000, -1.224646799147353207E-16 ) ) ;
#229 = PRODUCT ( '952766', '952766', '', ( #64 ) ) ;
#230 = AXIS2_PLACEMENT_3D ( 'NONE', #166, #34, #146 ) ;
#231 = DIRECTION ( 'NONE',  ( -3.491481338843133355E-15, 1.224646799147353207E-16, -1.000000000000000000 ) ) ;
#232 = CALENDAR_DATE ( 2021, 30, 11 ) ;
#233 = VERTEX_POINT ( 'NONE', #281 ) ;
#234 = EDGE_CURVE ( 'NONE', #127, #127, #23, .T. ) ;
#235 = VERTEX_POINT ( 'NONE', #278 ) ;
#236 = PLANE ( 'NONE',  #269 ) ;
#237 = AXIS2_PLACEMENT_3D ( 'NONE', #254, #272, #100 ) ;
#238 = EDGE_LOOP ( 'NONE', ( #160 ) ) ;
#239 = APPROVAL_DATE_TIME ( #241, #70 ) ;
#240 = ORIENTED_EDGE ( 'NONE', *, *, #234, .F. ) ;
#241 = DATE_AND_TIME ( #232, #78 ) ;
#242 = EDGE_LOOP ( 'NONE', ( #240 ) ) ;
#243 = AXIS2_PLACEMENT_3D ( 'NONE', #204, #35, #57 ) ;
#244 = DATE_AND_TIME ( #175, #131 ) ;
#245 = EDGE_LOOP ( 'NONE', ( #31 ) ) ;
#246 = CC_DESIGN_PERSON_AND_ORGANIZATION_ASSIGNMENT ( #66, #150, ( #153 ) ) ;
#247 = FACE_OUTER_BOUND ( 'NONE', #238, .T. ) ;
#248 = DIRECTION ( 'NONE',  ( 4.275831445896959482E-31, 1.000000000000000000, 1.224646799147353207E-16 ) ) ;
#249 = CC_DESIGN_PERSON_AND_ORGANIZATION_ASSIGNMENT ( #199, #25, ( #255 ) ) ;
#250 = CARTESIAN_POINT ( 'NONE',  ( 1.396592535537251173E-15, -4.898587196589405063E-17, 0.3999999999999993561 ) ) ;
#251 = CLOSED_SHELL ( 'NONE', ( #211, #126, #178, #121 ) ) ;
#252 = CARTESIAN_POINT ( 'NONE',  ( 1.396592535537251173E-15, -4.898587196589405063E-17, 0.3999999999999993561 ) ) ;
#253 = CLOSED_SHELL ( 'NONE', ( #85, #38, #157, #8, #195, #214, #256 ) ) ;
#254 = CARTESIAN_POINT ( 'NONE',  ( 4.643670180661366731E-13, -1.628780242865979995E-14, 133.0000000000000000 ) ) ;
#255 = PRODUCT_DEFINITION_FORMATION_WITH_SPECIFIED_SOURCE ( 'ANY', '', #229, .NOT_KNOWN. ) ;
#256 = ADVANCED_FACE ( 'NONE', ( #58 ), #99, .F. ) ;
#257 = VERTEX_POINT ( 'NONE', #261 ) ;
#258 = MANIFOLD_SOLID_BREP ( 'Corps-Déplacer/Copier1[2]', #251 ) ;
#259 = CARTESIAN_POINT ( 'NONE',  ( 1.396592535537253539E-15, 5.255999999999997563, 0.4000000000000000222 ) ) ;
#260 = CC_DESIGN_DATE_AND_TIME_ASSIGNMENT ( #215, #65, ( #153 ) ) ;
#261 = CARTESIAN_POINT ( 'NONE',  ( 6.633814543801952113E-14, 5.255999999999997563, 19.00000000000000000 ) ) ;
#262 = APPROVAL_STATUS ( 'not_yet_approved' ) ;
#263 = ORIENTED_EDGE ( 'NONE', *, *, #29, .T. ) ;
#264 = LOCAL_TIME ( 11, 47, 30.00000000000000000, #280 ) ;
#265 = PERSON_AND_ORGANIZATION_ROLE ( 'design_supplier' ) ;
#266 = ORIENTED_EDGE ( 'NONE', *, *, #219, .T. ) ;
#267 = DIRECTION ( 'NONE',  ( 0.0000000000000000000, 1.000000000000000000, 0.0000000000000000000 ) ) ;
#268 = APPROVAL ( #87, 'UNSPECIFIED' ) ;
#269 = AXIS2_PLACEMENT_3D ( 'NONE', #200, #79, #47 ) ;
#270 = CARTESIAN_POINT ( 'NONE',  ( 6.939814151273241357E-14, -2.434159132538934875E-15, 19.87641770862987656 ) ) ;
#271 = DIRECTION ( 'NONE',  ( -4.397100329651225720E-31, -1.000000000000000000, -1.237673712882996580E-16 ) ) ;
#272 = DIRECTION ( 'NONE',  ( -3.491481338843133355E-15, 1.224646799147353207E-16, -1.000000000000000000 ) ) ;
#273 =( GEOMETRIC_REPRESENTATION_CONTEXT ( 3 ) GLOBAL_UNCERTAINTY_ASSIGNED_CONTEXT ( ( #208 ) ) GLOBAL_UNIT_ASSIGNED_CONTEXT ( ( #192, #155, #22 ) ) REPRESENTATION_CONTEXT ( 'NONE', 'WORKASPACE' ) );
#274 = CARTESIAN_POINT ( 'NONE',  ( -2.148630910511518822E-30, 7.536382731974885473E-32, -6.153923512658514673E-16 ) ) ;
#275 = DIRECTION ( 'NONE',  ( 0.0000000000000000000, 1.000000000000000000, 0.0000000000000000000 ) ) ;
#276 = FACE_OUTER_BOUND ( 'NONE', #52, .T. ) ;
#277 = AXIS2_PLACEMENT_3D ( 'NONE', #141, #81, #275 ) ;
#278 = CARTESIAN_POINT ( 'NONE',  ( 0.0000000000000000000, 5.025059892324150290, 0.0000000000000000000 ) ) ;
#279 = ADVANCED_BREP_SHAPE_REPRESENTATION ( '952766', ( #75, #258, #198 ), #273 ) ;
#280 = COORDINATED_UNIVERSAL_TIME_OFFSET ( 1, 0, .AHEAD. ) ;
#281 = CARTESIAN_POINT ( 'NONE',  ( 6.939814151273241357E-14, 4.749999999999989342, 19.87641770862987656 ) ) ;
#282 = CALENDAR_DATE ( 2021, 30, 11 ) ;
#283 = CIRCLE ( 'NONE', #113, 4.750000000000007994 ) ;
ENDSEC;
END-ISO-10303-21;
