ISO-10303-21;
HEADER;
FILE_DESCRIPTION (( 'STEP AP203' ),
    '1' );
FILE_NAME ('952765.step',
    '2021-11-30T10:47:29',
    ( '' ),
    ( '' ),
    'SwSTEP 2.0',
    'SolidWorks 2019',
    '' );
FILE_SCHEMA (( 'CONFIG_CONTROL_DESIGN' ));
ENDSEC;

DATA;
#1 = DATE_AND_TIME ( #177, #236 ) ;
#2 = ORIENTED_EDGE ( 'NONE', *, *, #138, .T. ) ;
#3 = DATE_AND_TIME ( #133, #271 ) ;
#4 = EDGE_LOOP ( 'NONE', ( #91 ) ) ;
#5 = CC_DESIGN_PERSON_AND_ORGANIZATION_ASSIGNMENT ( #132, #283, ( #97 ) ) ;
#6 = ORIENTED_EDGE ( 'NONE', *, *, #206, .F. ) ;
#7 =( GEOMETRIC_REPRESENTATION_CONTEXT ( 3 ) GLOBAL_UNCERTAINTY_ASSIGNED_CONTEXT ( ( #169 ) ) GLOBAL_UNIT_ASSIGNED_CONTEXT ( ( #151, #20, #194 ) ) REPRESENTATION_CONTEXT ( 'NONE', 'WORKASPACE' ) );
#8 = DIRECTION ( 'NONE',  ( 4.275831445896957731E-31, 1.000000000000000000, 1.224646799147353207E-16 ) ) ;
#9 = PRODUCT_DEFINITION_SHAPE ( 'NONE', 'NONE',  #109 ) ;
#10 = FACE_OUTER_BOUND ( 'NONE', #239, .T. ) ;
#11 = AXIS2_PLACEMENT_3D ( 'NONE', #252, #139, #207 ) ;
#12 = FACE_OUTER_BOUND ( 'NONE', #243, .T. ) ;
#13 = CARTESIAN_POINT ( 'NONE',  ( 6.633814543801952113E-14, -2.326828918379970970E-15, 19.00000000000000000 ) ) ;
#14 = CARTESIAN_POINT ( 'NONE',  ( 0.0000000000000000000, 0.0000000000000000000, 0.0000000000000000000 ) ) ;
#15 = ADVANCED_FACE ( 'NONE', ( #105, #246 ), #253, .T. ) ;
#16 = AXIS2_PLACEMENT_3D ( 'NONE', #123, #118, #76 ) ;
#17 = DIRECTION ( 'NONE',  ( -3.491481338843133355E-15, 1.224646799147353207E-16, -1.000000000000000000 ) ) ;
#18 = CARTESIAN_POINT ( 'NONE',  ( -2.063114281593579264E-30, 7.236430775442512856E-32, -5.908994152829042601E-16 ) ) ;
#19 = EDGE_CURVE ( 'NONE', #213, #213, #257, .T. ) ;
#20 =( NAMED_UNIT ( * ) PLANE_ANGLE_UNIT ( ) SI_UNIT ( $, .RADIAN. ) );
#21 = VERTEX_POINT ( 'NONE', #256 ) ;
#22 = COORDINATED_UNIVERSAL_TIME_OFFSET ( 1, 0, .AHEAD. ) ;
#23 = ORIENTED_EDGE ( 'NONE', *, *, #19, .T. ) ;
#24 = EDGE_LOOP ( 'NONE', ( #181 ) ) ;
#25 = COORDINATED_UNIVERSAL_TIME_OFFSET ( 1, 0, .AHEAD. ) ;
#26 = MECHANICAL_CONTEXT ( 'NONE', #28, 'mechanical' ) ;
#27 = EDGE_LOOP ( 'NONE', ( #175 ) ) ;
#28 = APPLICATION_CONTEXT ( 'configuration controlled 3d designs of mechanical parts and assemblies' ) ;
#29 = DIRECTION ( 'NONE',  ( 0.0000000000000000000, 1.000000000000000000, 0.0000000000000000000 ) ) ;
#30 = CC_DESIGN_APPROVAL ( #230, ( #54 ) ) ;
#31 = DIRECTION ( 'NONE',  ( 0.0000000000000000000, 1.000000000000000000, 0.0000000000000000000 ) ) ;
#32 = CARTESIAN_POINT ( 'NONE',  ( 0.0000000000000000000, 0.0000000000000000000, 0.0000000000000000000 ) ) ;
#33 = CARTESIAN_POINT ( 'NONE',  ( 4.608755367272936534E-13, -1.616533774874506480E-14, 132.0000000000000000 ) ) ;
#34 = AXIS2_PLACEMENT_3D ( 'NONE', #73, #143, #272 ) ;
#35 = DIRECTION ( 'NONE',  ( 3.491481338843133355E-15, -1.224646799147353207E-16, 1.000000000000000000 ) ) ;
#36 = APPROVAL ( #179, 'UNSPECIFIED' ) ;
#37 = CARTESIAN_POINT ( 'NONE',  ( 3.037588764793526145E-13, 4.749999999999997335, 87.00000000000001421 ) ) ;
#38 = DIRECTION ( 'NONE',  ( -3.491481338843133355E-15, 1.224646799147353207E-16, -1.000000000000000000 ) ) ;
#39 = APPROVAL_PERSON_ORGANIZATION ( #178, #186, #200 ) ;
#40 = VERTEX_POINT ( 'NONE', #255 ) ;
#41 = CARTESIAN_POINT ( 'NONE',  ( 6.633814543801952113E-14, 5.055999999999997385, 19.00000000000000000 ) ) ;
#42 = PERSON_AND_ORGANIZATION_ROLE ( 'creator' ) ;
#43 = ORGANIZATION ( 'UNSPECIFIED', 'UNSPECIFIED', '' ) ;
#44 = ORIENTED_EDGE ( 'NONE', *, *, #58, .T. ) ;
#45 = EDGE_LOOP ( 'NONE', ( #23 ) ) ;
#46 = CALENDAR_DATE ( 2021, 30, 11 ) ;
#47 = EDGE_LOOP ( 'NONE', ( #268 ) ) ;
#48 = APPROVAL_ROLE ( '' ) ;
#49 = ORIENTED_EDGE ( 'NONE', *, *, #211, .F. ) ;
#50 = AXIS2_PLACEMENT_3D ( 'NONE', #187, #57, #29 ) ;
#51 = EDGE_LOOP ( 'NONE', ( #56 ) ) ;
#52 = DIRECTION ( 'NONE',  ( -3.491481338843133355E-15, 1.224646799147353207E-16, -1.000000000000000000 ) ) ;
#53 = FACE_OUTER_BOUND ( 'NONE', #114, .T. ) ;
#54 = SECURITY_CLASSIFICATION ( '', '', #156 ) ;
#55 = DIRECTION ( 'NONE',  ( -4.275831445896958607E-31, -1.000000000000000000, -1.224646799147353207E-16 ) ) ;
#56 = ORIENTED_EDGE ( 'NONE', *, *, #138, .F. ) ;
#57 = DIRECTION ( 'NONE',  ( -3.491481338843133355E-15, 1.224646799147353207E-16, -1.000000000000000000 ) ) ;
#58 = EDGE_CURVE ( 'NONE', #281, #281, #135, .T. ) ;
#59 = CARTESIAN_POINT ( 'NONE',  ( 0.0000000000000000000, 0.0000000000000000000, 0.0000000000000000000 ) ) ;
#60 = CARTESIAN_POINT ( 'NONE',  ( 6.818865689822139921E-14, -2.391736122989937445E-15, 19.53000754711609233 ) ) ;
#61 = FACE_OUTER_BOUND ( 'NONE', #199, .T. ) ;
#62 = AXIS2_PLACEMENT_3D ( 'NONE', #185, #101, #75 ) ;
#63 = APPROVAL_STATUS ( 'not_yet_approved' ) ;
#64 = ADVANCED_FACE ( 'NONE', ( #53 ), #205, .F. ) ;
#65 = ORIENTED_EDGE ( 'NONE', *, *, #86, .F. ) ;
#66 = EDGE_CURVE ( 'NONE', #82, #82, #172, .T. ) ;
#67 = PERSON_AND_ORGANIZATION ( #259, #43 ) ;
#68 = CC_DESIGN_PERSON_AND_ORGANIZATION_ASSIGNMENT ( #67, #242, ( #276 ) ) ;
#69 = COORDINATED_UNIVERSAL_TIME_OFFSET ( 1, 0, .AHEAD. ) ;
#70 = PERSON_AND_ORGANIZATION ( #259, #43 ) ;
#71 = EDGE_LOOP ( 'NONE', ( #136 ) ) ;
#72 = AXIS2_PLACEMENT_3D ( 'NONE', #249, #121, #55 ) ;
#73 = CARTESIAN_POINT ( 'NONE',  ( 6.633814543801952113E-14, -2.326828918379970970E-15, 19.00000000000000000 ) ) ;
#74 = CC_DESIGN_DATE_AND_TIME_ASSIGNMENT ( #153, #237, ( #54 ) ) ;
#75 = DIRECTION ( 'NONE',  ( 0.0000000000000000000, 1.000000000000000000, 0.0000000000000000000 ) ) ;
#76 = DIRECTION ( 'NONE',  ( 0.0000000000000000000, 1.000000000000000000, 0.0000000000000000000 ) ) ;
#77 = DIRECTION ( 'NONE',  ( -3.491481338843133355E-15, 1.224646799147353207E-16, -1.000000000000000000 ) ) ;
#78 = ADVANCED_FACE ( 'NONE', ( #10 ), #274, .T. ) ;
#79 = LOCAL_TIME ( 11, 47, 29.00000000000000000, #235 ) ;
#80 = CLOSED_SHELL ( 'NONE', ( #64, #15, #125, #78 ) ) ;
#81 = VERTEX_POINT ( 'NONE', #231 ) ;
#82 = VERTEX_POINT ( 'NONE', #37 ) ;
#83 = CIRCLE ( 'NONE', #16, 4.749999999999992006 ) ;
#84 = AXIS2_PLACEMENT_3D ( 'NONE', #163, #17, #191 ) ;
#85 = FACE_OUTER_BOUND ( 'NONE', #24, .T. ) ;
#86 = EDGE_CURVE ( 'NONE', #81, #81, #83, .T. ) ;
#87 = COORDINATED_UNIVERSAL_TIME_OFFSET ( 1, 0, .AHEAD. ) ;
#88 = APPROVAL_DATE_TIME ( #130, #230 ) ;
#89 = ORIENTED_EDGE ( 'NONE', *, *, #245, .T. ) ;
#90 = DATE_AND_TIME ( #160, #165 ) ;
#91 = ORIENTED_EDGE ( 'NONE', *, *, #245, .F. ) ;
#92 = DIRECTION ( 'NONE',  ( 0.0000000000000000000, 0.0000000000000000000, 1.000000000000000000 ) ) ;
#93 = PERSON_AND_ORGANIZATION ( #259, #43 ) ;
#94 = ORIENTED_EDGE ( 'NONE', *, *, #86, .T. ) ;
#95 = EDGE_LOOP ( 'NONE', ( #2 ) ) ;
#96 = AXIS2_PLACEMENT_3D ( 'NONE', #167, #108, #124 ) ;
#97 = PRODUCT ( '952765', '952765', '', ( #26 ) ) ;
#98 = CC_DESIGN_PERSON_AND_ORGANIZATION_ASSIGNMENT ( #174, #42, ( #276 ) ) ;
#99 = DIRECTION ( 'NONE',  ( -3.491481338843133355E-15, 1.224646799147353207E-16, -1.000000000000000000 ) ) ;
#100 = EDGE_CURVE ( 'NONE', #170, #170, #107, .T. ) ;
#101 = DIRECTION ( 'NONE',  ( -3.491481338843133355E-15, 1.224646799147353207E-16, -1.000000000000000000 ) ) ;
#102 = DIRECTION ( 'NONE',  ( -4.275831445896958607E-31, -1.000000000000000000, -1.224646799147353207E-16 ) ) ;
#103 = CIRCLE ( 'NONE', #209, 5.000000000000000000 ) ;
#104 = CARTESIAN_POINT ( 'NONE',  ( 1.396592535537251370E-15, -4.898587196589405680E-17, 0.3999999999999994116 ) ) ;
#105 = FACE_BOUND ( 'NONE', #4, .T. ) ;
#106 = FACE_OUTER_BOUND ( 'NONE', #157, .T. ) ;
#107 = CIRCLE ( 'NONE', #62, 4.000000000000000000 ) ;
#108 = DIRECTION ( 'NONE',  ( -3.491481338843133355E-15, 1.224646799147353207E-16, -1.000000000000000000 ) ) ;
#109 = PRODUCT_DEFINITION ( 'UNKNOWN', '', #276, #192 ) ;
#110 = ADVANCED_FACE ( 'NONE', ( #183 ), #164, .F. ) ;
#111 = AXIS2_PLACEMENT_3D ( 'NONE', #141, #35, #166 ) ;
#112 = EDGE_LOOP ( 'NONE', ( #131 ) ) ;
#113 = CARTESIAN_POINT ( 'NONE',  ( 0.0000000000000000000, 0.0000000000000000000, 0.0000000000000000000 ) ) ;
#114 = EDGE_LOOP ( 'NONE', ( #89 ) ) ;
#115 = APPROVAL_STATUS ( 'not_yet_approved' ) ;
#116 = APPLICATION_PROTOCOL_DEFINITION ( 'international standard', 'config_control_design', 1994, #251 ) ;
#117 = CC_DESIGN_PERSON_AND_ORGANIZATION_ASSIGNMENT ( #159, #260, ( #54 ) ) ;
#118 = DIRECTION ( 'NONE',  ( -3.491481338843133355E-15, 1.224646799147353207E-16, -1.000000000000000000 ) ) ;
#119 = CC_DESIGN_APPROVAL ( #186, ( #109 ) ) ;
#120 = DIRECTION ( 'NONE',  ( -4.190116572045016874E-31, -1.000000000000000000, -1.179412964531304878E-16 ) ) ;
#121 = DIRECTION ( 'NONE',  ( 3.491481338843133355E-15, -1.224646799147353207E-16, 1.000000000000000000 ) ) ;
#122 = FACE_OUTER_BOUND ( 'NONE', #47, .T. ) ;
#123 = CARTESIAN_POINT ( 'NONE',  ( 6.818865689822139921E-14, -2.391736122989937445E-15, 19.53000754711609233 ) ) ;
#124 = DIRECTION ( 'NONE',  ( 0.0000000000000000000, 1.000000000000000000, 0.0000000000000000000 ) ) ;
#125 = ADVANCED_FACE ( 'NONE', ( #122, #208 ), #244, .T. ) ;
#126 = AXIS2_PLACEMENT_3D ( 'NONE', #204, #225, #162 ) ;
#127 = FACE_BOUND ( 'NONE', #202, .T. ) ;
#128 = CC_DESIGN_PERSON_AND_ORGANIZATION_ASSIGNMENT ( #93, #264, ( #109 ) ) ;
#129 = FACE_OUTER_BOUND ( 'NONE', #112, .T. ) ;
#130 = DATE_AND_TIME ( #46, #79 ) ;
#131 = ORIENTED_EDGE ( 'NONE', *, *, #19, .F. ) ;
#132 = PERSON_AND_ORGANIZATION ( #259, #43 ) ;
#133 = CALENDAR_DATE ( 2021, 30, 11 ) ;
#134 = ORIENTED_EDGE ( 'NONE', *, *, #66, .F. ) ;
#135 = CIRCLE ( 'NONE', #11, 5.055999999999997385 ) ;
#136 = ORIENTED_EDGE ( 'NONE', *, *, #100, .F. ) ;
#137 = FACE_OUTER_BOUND ( 'NONE', #71, .T. ) ;
#138 = EDGE_CURVE ( 'NONE', #40, #40, #223, .T. ) ;
#139 = DIRECTION ( 'NONE',  ( -3.491481338843133355E-15, 1.224646799147353207E-16, -1.000000000000000000 ) ) ;
#140 = CIRCLE ( 'NONE', #240, 5.056000000000000050 ) ;
#141 = CARTESIAN_POINT ( 'NONE',  ( 6.633814543801952113E-14, 3.791392730569172179E-32, 19.00000000000000000 ) ) ;
#142 = CLOSED_SHELL ( 'NONE', ( #110, #273, #263, #190, #258, #279, #233 ) ) ;
#143 = DIRECTION ( 'NONE',  ( -3.491481338843133355E-15, 1.224646799147353207E-16, -1.000000000000000000 ) ) ;
#144 = DIRECTION ( 'NONE',  ( 3.491481338843133355E-15, -1.224646799147353207E-16, 1.000000000000000000 ) ) ;
#145 = AXIS2_PLACEMENT_3D ( 'NONE', #270, #144, #102 ) ;
#146 = APPLICATION_PROTOCOL_DEFINITION ( 'international standard', 'config_control_design', 1994, #28 ) ;
#147 = CC_DESIGN_DATE_AND_TIME_ASSIGNMENT ( #90, #173, ( #109 ) ) ;
#148 = DIRECTION ( 'NONE',  ( 4.275831445896959482E-31, 1.000000000000000000, 1.224646799147353207E-16 ) ) ;
#149 = FACE_BOUND ( 'NONE', #27, .T. ) ;
#150 = APPROVAL_PERSON_ORGANIZATION ( #198, #230, #48 ) ;
#151 =( LENGTH_UNIT ( ) NAMED_UNIT ( * ) SI_UNIT ( .MILLI., .METRE. ) );
#152 = VERTEX_POINT ( 'NONE', #41 ) ;
#153 = DATE_AND_TIME ( #238, #247 ) ;
#154 = APPROVAL_PERSON_ORGANIZATION ( #70, #36, #220 ) ;
#155 = DIRECTION ( 'NONE',  ( 1.000000000000000000, 0.0000000000000000000, 0.0000000000000000000 ) ) ;
#156 = SECURITY_CLASSIFICATION_LEVEL ( 'unclassified' ) ;
#157 = EDGE_LOOP ( 'NONE', ( #197 ) ) ;
#158 = MANIFOLD_SOLID_BREP ( 'Corps-Déplacer/Copier1[2]', #80 ) ;
#159 = PERSON_AND_ORGANIZATION ( #259, #43 ) ;
#160 = CALENDAR_DATE ( 2021, 30, 11 ) ;
#161 = ORIENTED_EDGE ( 'NONE', *, *, #211, .T. ) ;
#162 = DIRECTION ( 'NONE',  ( 4.275831445896958607E-31, 1.000000000000000000, 1.224646799147353207E-16 ) ) ;
#163 = CARTESIAN_POINT ( 'NONE',  ( 4.643670180661366731E-13, 2.999519565323690036E-32, 133.0000000000000000 ) ) ;
#164 = PLANE ( 'NONE',  #111 ) ;
#165 = LOCAL_TIME ( 11, 47, 29.00000000000000000, #22 ) ;
#166 = DIRECTION ( 'NONE',  ( -4.275831445896958607E-31, -1.000000000000000000, -1.224646799147353207E-16 ) ) ;
#167 = CARTESIAN_POINT ( 'NONE',  ( 4.643670180661366731E-13, -1.628780242865979995E-14, 133.0000000000000000 ) ) ;
#168 = AXIS2_PLACEMENT_3D ( 'NONE', #113, #92, #155 ) ;
#169 = UNCERTAINTY_MEASURE_WITH_UNIT (LENGTH_MEASURE( 1.000000000000000082E-05 ), #151, 'distance_accuracy_value', 'NONE');
#170 = VERTEX_POINT ( 'NONE', #216 ) ;
#171 = CARTESIAN_POINT ( 'NONE',  ( 4.608755367272936534E-13, 4.999999999999984013, 132.0000000000000000 ) ) ;
#172 = CIRCLE ( 'NONE', #50, 4.750000000000007994 ) ;
#173 = DATE_TIME_ROLE ( 'creation_date' ) ;
#174 = PERSON_AND_ORGANIZATION ( #259, #43 ) ;
#175 = ORIENTED_EDGE ( 'NONE', *, *, #100, .T. ) ;
#176 = CIRCLE ( 'NONE', #241, 4.825059892324150113 ) ;
#177 = CALENDAR_DATE ( 2021, 30, 11 ) ;
#178 = PERSON_AND_ORGANIZATION ( #259, #43 ) ;
#179 = APPROVAL_STATUS ( 'not_yet_approved' ) ;
#180 = AXIS2_PLACEMENT_3D ( 'NONE', #14, #193, #148 ) ;
#181 = ORIENTED_EDGE ( 'NONE', *, *, #206, .T. ) ;
#182 = FACE_OUTER_BOUND ( 'NONE', #45, .T. ) ;
#183 = FACE_OUTER_BOUND ( 'NONE', #95, .T. ) ;
#184 = DIRECTION ( 'NONE',  ( -3.491481338843133355E-15, 1.224646799147353207E-16, -1.000000000000000000 ) ) ;
#185 = CARTESIAN_POINT ( 'NONE',  ( 4.643670180661366731E-13, -1.628780242865979995E-14, 133.0000000000000000 ) ) ;
#186 = APPROVAL ( #63, 'UNSPECIFIED' ) ;
#187 = CARTESIAN_POINT ( 'NONE',  ( 3.037588764793526145E-13, -1.065442715258197367E-14, 87.00000000000001421 ) ) ;
#188 = CARTESIAN_POINT ( 'NONE',  ( 3.071394887490858903E-13, 4.999999999999984013, 87.96824583655184426 ) ) ;
#189 = CC_DESIGN_SECURITY_CLASSIFICATION ( #54, ( #276 ) ) ;
#190 = ADVANCED_FACE ( 'NONE', ( #12, #182 ), #222, .F. ) ;
#191 = DIRECTION ( 'NONE',  ( 4.275831445896958607E-31, 1.000000000000000000, 1.224646799147353207E-16 ) ) ;
#192 = DESIGN_CONTEXT ( 'detailed design', #251, 'design' ) ;
#193 = DIRECTION ( 'NONE',  ( -3.491481338843133355E-15, 1.224646799147353207E-16, -1.000000000000000000 ) ) ;
#194 =( NAMED_UNIT ( * ) SI_UNIT ( $, .STERADIAN. ) SOLID_ANGLE_UNIT ( ) );
#195 = CONICAL_SURFACE ( 'NONE', #214, 4.749999999999992006, 0.5235987755982949299 ) ;
#196 = CYLINDRICAL_SURFACE ( 'NONE', #262, 4.750000000000000000 ) ;
#197 = ORIENTED_EDGE ( 'NONE', *, *, #66, .T. ) ;
#198 = PERSON_AND_ORGANIZATION ( #259, #43 ) ;
#199 = EDGE_LOOP ( 'NONE', ( #6 ) ) ;
#200 = APPROVAL_ROLE ( '' ) ;
#201 = SHAPE_DEFINITION_REPRESENTATION ( #9, #210 ) ;
#202 = EDGE_LOOP ( 'NONE', ( #94 ) ) ;
#203 = CC_DESIGN_APPROVAL ( #36, ( #276 ) ) ;
#204 = CARTESIAN_POINT ( 'NONE',  ( 3.037588764793525640E-13, -1.040834085586084257E-14, 87.00000000000000000 ) ) ;
#205 = PLANE ( 'NONE',  #72 ) ;
#206 = EDGE_CURVE ( 'NONE', #215, #215, #103, .T. ) ;
#207 = DIRECTION ( 'NONE',  ( 4.190116572045016874E-31, 1.000000000000000000, 1.179412964531304878E-16 ) ) ;
#208 = FACE_OUTER_BOUND ( 'NONE', #266, .T. ) ;
#209 = AXIS2_PLACEMENT_3D ( 'NONE', #33, #77, #227 ) ;
#210 = ADVANCED_BREP_SHAPE_REPRESENTATION ( '952765', ( #250, #158, #168 ), #7 ) ;
#211 = EDGE_CURVE ( 'NONE', #152, #152, #140, .T. ) ;
#212 = DIRECTION ( 'NONE',  ( -3.491481338843133355E-15, 1.224646799147353207E-16, -1.000000000000000000 ) ) ;
#213 = VERTEX_POINT ( 'NONE', #188 ) ;
#214 = AXIS2_PLACEMENT_3D ( 'NONE', #60, #38, #234 ) ;
#215 = VERTEX_POINT ( 'NONE', #171 ) ;
#216 = CARTESIAN_POINT ( 'NONE',  ( 4.643670180661366731E-13, 3.999999999999983569, 133.0000000000000000 ) ) ;
#217 = DIRECTION ( 'NONE',  ( 4.275831445896959482E-31, 1.000000000000000000, 1.224646799147353207E-16 ) ) ;
#218 = CONICAL_SURFACE ( 'NONE', #96, 4.000000000000000000, 0.7853981633974479459 ) ;
#219 = APPROVAL_DATE_TIME ( #1, #186 ) ;
#220 = APPROVAL_ROLE ( '' ) ;
#221 = EDGE_LOOP ( 'NONE', ( #44 ) ) ;
#222 = TOROIDAL_SURFACE ( 'NONE', #126, 6.750000000000007994, 2.000000000000004441 ) ;
#223 = CIRCLE ( 'NONE', #34, 5.056000000000000050 ) ;
#224 = DIRECTION ( 'NONE',  ( 3.491481338843133355E-15, -1.224646799147353207E-16, 1.000000000000000000 ) ) ;
#225 = DIRECTION ( 'NONE',  ( -3.491481338843133355E-15, 1.224646799147353207E-16, -1.000000000000000000 ) ) ;
#226 = AXIS2_PLACEMENT_3D ( 'NONE', #104, #224, #120 ) ;
#227 = DIRECTION ( 'NONE',  ( 0.0000000000000000000, 1.000000000000000000, 0.0000000000000000000 ) ) ;
#228 = DIRECTION ( 'NONE',  ( -3.491481338843133355E-15, 1.224646799147353207E-16, -1.000000000000000000 ) ) ;
#229 = FACE_OUTER_BOUND ( 'NONE', #261, .T. ) ;
#230 = APPROVAL ( #115, 'UNSPECIFIED' ) ;
#231 = CARTESIAN_POINT ( 'NONE',  ( 6.818865689822139921E-14, 4.749999999999989342, 19.53000754711609233 ) ) ;
#232 = AXIS2_PLACEMENT_3D ( 'NONE', #32, #184, #8 ) ;
#233 = ADVANCED_FACE ( 'NONE', ( #137 ), #269, .F. ) ;
#234 = DIRECTION ( 'NONE',  ( 0.0000000000000000000, 1.000000000000000000, 0.0000000000000000000 ) ) ;
#235 = COORDINATED_UNIVERSAL_TIME_OFFSET ( 1, 0, .AHEAD. ) ;
#236 = LOCAL_TIME ( 11, 47, 29.00000000000000000, #87 ) ;
#237 = DATE_TIME_ROLE ( 'classification_date' ) ;
#238 = CALENDAR_DATE ( 2021, 30, 11 ) ;
#239 = EDGE_LOOP ( 'NONE', ( #49 ) ) ;
#240 = AXIS2_PLACEMENT_3D ( 'NONE', #13, #52, #275 ) ;
#241 = AXIS2_PLACEMENT_3D ( 'NONE', #18, #212, #282 ) ;
#242 = PERSON_AND_ORGANIZATION_ROLE ( 'design_supplier' ) ;
#243 = EDGE_LOOP ( 'NONE', ( #134 ) ) ;
#244 = CYLINDRICAL_SURFACE ( 'NONE', #232, 5.055999999999998273 ) ;
#245 = EDGE_CURVE ( 'NONE', #21, #21, #176, .T. ) ;
#246 = FACE_OUTER_BOUND ( 'NONE', #221, .T. ) ;
#247 = LOCAL_TIME ( 11, 47, 29.00000000000000000, #25 ) ;
#248 = CARTESIAN_POINT ( 'NONE',  ( 3.071394887490858903E-13, -1.077300306903406976E-14, 87.96824583655184426 ) ) ;
#249 = CARTESIAN_POINT ( 'NONE',  ( -1.031557140796789632E-30, 3.618215387721256428E-32, -2.954497076414521301E-16 ) ) ;
#250 = MANIFOLD_SOLID_BREP ( 'Corps-Déplacer/Copier1[1]', #142 ) ;
#251 = APPLICATION_CONTEXT ( 'configuration controlled 3d designs of mechanical parts and assemblies' ) ;
#252 = CARTESIAN_POINT ( 'NONE',  ( 1.396592535537251370E-15, -4.898587196589405680E-17, 0.3999999999999994116 ) ) ;
#253 = CONICAL_SURFACE ( 'NONE', #226, 5.055999999999997385, 0.5235987755982930425 ) ;
#254 = CYLINDRICAL_SURFACE ( 'NONE', #180, 4.999999999999997335 ) ;
#255 = CARTESIAN_POINT ( 'NONE',  ( 6.633814543801952113E-14, 5.055999999999997385, 19.00000000000000000 ) ) ;
#256 = CARTESIAN_POINT ( 'NONE',  ( 0.0000000000000000000, 4.825059892324150113, 0.0000000000000000000 ) ) ;
#257 = CIRCLE ( 'NONE', #267, 4.999999999999993783 ) ;
#258 = ADVANCED_FACE ( 'NONE', ( #129, #85 ), #254, .T. ) ;
#259 = PERSON ( 'UNSPECIFIED', 'UNSPECIFIED', 'UNSPECIFIED', ('UNSPECIFIED'), ('UNSPECIFIED'), ('UNSPECIFIED') ) ;
#260 = PERSON_AND_ORGANIZATION_ROLE ( 'classification_officer' ) ;
#261 = EDGE_LOOP ( 'NONE', ( #65 ) ) ;
#262 = AXIS2_PLACEMENT_3D ( 'NONE', #59, #228, #217 ) ;
#263 = ADVANCED_FACE ( 'NONE', ( #229, #106 ), #196, .T. ) ;
#264 = PERSON_AND_ORGANIZATION_ROLE ( 'creator' ) ;
#265 = APPROVAL_DATE_TIME ( #3, #36 ) ;
#266 = EDGE_LOOP ( 'NONE', ( #161 ) ) ;
#267 = AXIS2_PLACEMENT_3D ( 'NONE', #248, #99, #31 ) ;
#268 = ORIENTED_EDGE ( 'NONE', *, *, #58, .F. ) ;
#269 = PLANE ( 'NONE',  #84 ) ;
#270 = CARTESIAN_POINT ( 'NONE',  ( 6.633814543801952113E-14, 3.791392730569172179E-32, 19.00000000000000000 ) ) ;
#271 = LOCAL_TIME ( 11, 47, 29.00000000000000000, #69 ) ;
#272 = DIRECTION ( 'NONE',  ( 0.0000000000000000000, 1.000000000000000000, 0.0000000000000000000 ) ) ;
#273 = ADVANCED_FACE ( 'NONE', ( #280, #127 ), #195, .T. ) ;
#274 = PLANE ( 'NONE',  #145 ) ;
#275 = DIRECTION ( 'NONE',  ( 0.0000000000000000000, 1.000000000000000000, 0.0000000000000000000 ) ) ;
#276 = PRODUCT_DEFINITION_FORMATION_WITH_SPECIFIED_SOURCE ( 'ANY', '', #97, .NOT_KNOWN. ) ;
#277 = CARTESIAN_POINT ( 'NONE',  ( 1.396592535537253539E-15, 5.055999999999997385, 0.4000000000000000222 ) ) ;
#278 = PRODUCT_RELATED_PRODUCT_CATEGORY ( 'detail', '', ( #97 ) ) ;
#279 = ADVANCED_FACE ( 'NONE', ( #61, #149 ), #218, .T. ) ;
#280 = FACE_OUTER_BOUND ( 'NONE', #51, .T. ) ;
#281 = VERTEX_POINT ( 'NONE', #277 ) ;
#282 = DIRECTION ( 'NONE',  ( 4.275831445896958607E-31, 1.000000000000000000, 1.224646799147353207E-16 ) ) ;
#283 = PERSON_AND_ORGANIZATION_ROLE ( 'design_owner' ) ;
ENDSEC;
END-ISO-10303-21;
