ISO-10303-21;
HEADER;
FILE_DESCRIPTION (( 'STEP AP203' ),
    '1' );
FILE_NAME ('952685.step',
    '2021-10-08T05:16:32',
    ( '' ),
    ( '' ),
    'SwSTEP 2.0',
    'SolidWorks 2019',
    '' );
FILE_SCHEMA (( 'CONFIG_CONTROL_DESIGN' ));
ENDSEC;

DATA;
#1 = ORIENTED_EDGE ( 'NONE', *, *, #115, .T. ) ;
#2 = FACE_OUTER_BOUND ( 'NONE', #142, .T. ) ;
#3 = FACE_OUTER_BOUND ( 'NONE', #124, .T. ) ;
#4 = EDGE_CURVE ( 'NONE', #213, #213, #122, .T. ) ;
#5 = LOCAL_TIME ( 7, 16, 32.00000000000000000, #32 ) ;
#6 = CARTESIAN_POINT ( 'NONE',  ( 0.0000000000000000000, 0.0000000000000000000, 0.0000000000000000000 ) ) ;
#7 = CARTESIAN_POINT ( 'NONE',  ( 1.043952920314096936E-13, -3.661693929450586610E-15, 29.90000000000000213 ) ) ;
#8 = DIRECTION ( 'NONE',  ( 3.491481338843133355E-15, -1.224646799147353207E-16, 1.000000000000000000 ) ) ;
#9 = CC_DESIGN_PERSON_AND_ORGANIZATION_ASSIGNMENT ( #202, #54, ( #143 ) ) ;
#10 = CARTESIAN_POINT ( 'NONE',  ( 0.0000000000000000000, 0.0000000000000000000, 0.0000000000000000000 ) ) ;
#11 = AXIS2_PLACEMENT_3D ( 'NONE', #127, #131, #144 ) ;
#12 = COORDINATED_UNIVERSAL_TIME_OFFSET ( 1, 0, .AHEAD. ) ;
#13 = ADVANCED_FACE ( 'NONE', ( #3 ), #46, .F. ) ;
#14 = APPROVAL_PERSON_ORGANIZATION ( #156, #94, #219 ) ;
#15 = PERSON_AND_ORGANIZATION_ROLE ( 'creator' ) ;
#16 = EDGE_LOOP ( 'NONE', ( #37 ) ) ;
#17 = APPROVAL ( #36, 'UNSPECIFIED' ) ;
#18 = ORIENTED_EDGE ( 'NONE', *, *, #35, .T. ) ;
#19 = AXIS2_PLACEMENT_3D ( 'NONE', #210, #130, #65 ) ;
#20 = DIRECTION ( 'NONE',  ( 3.491481338843133355E-15, -1.224646799147353207E-16, 1.000000000000000000 ) ) ;
#21 = CYLINDRICAL_SURFACE ( 'NONE', #133, 0.4999999999999980571 ) ;
#22 = PRODUCT_RELATED_PRODUCT_CATEGORY ( 'detail', '', ( #118 ) ) ;
#23 = DIRECTION ( 'NONE',  ( 0.0000000000000000000, 1.000000000000000000, 0.0000000000000000000 ) ) ;
#24 = CONICAL_SURFACE ( 'NONE', #95, 0.4999999999999970024, 0.2617993877991428020 ) ;
#25 = DIRECTION ( 'NONE',  ( -3.491481338843133355E-15, 1.224646799147353207E-16, -1.000000000000000000 ) ) ;
#26 = CC_DESIGN_DATE_AND_TIME_ASSIGNMENT ( #101, #117, ( #174 ) ) ;
#27 = FACE_OUTER_BOUND ( 'NONE', #208, .T. ) ;
#28 = DESIGN_CONTEXT ( 'detailed design', #184, 'design' ) ;
#29 = VERTEX_POINT ( 'NONE', #217 ) ;
#30 = AXIS2_PLACEMENT_3D ( 'NONE', #76, #193, #43 ) ;
#31 = PERSON_AND_ORGANIZATION ( #44, #151 ) ;
#32 = COORDINATED_UNIVERSAL_TIME_OFFSET ( 1, 0, .AHEAD. ) ;
#33 = CARTESIAN_POINT ( 'NONE',  ( 1.396592535537253342E-14, 0.2449999999999992462, 4.000000000000000000 ) ) ;
#34 = CIRCLE ( 'NONE', #78, 0.4999999999999991673 ) ;
#35 = EDGE_CURVE ( 'NONE', #114, #114, #180, .T. ) ;
#36 = APPROVAL_STATUS ( 'not_yet_approved' ) ;
#37 = ORIENTED_EDGE ( 'NONE', *, *, #196, .F. ) ;
#38 = APPROVAL_DATE_TIME ( #104, #17 ) ;
#39 = ORIENTED_EDGE ( 'NONE', *, *, #115, .F. ) ;
#40 = ORIENTED_EDGE ( 'NONE', *, *, #203, .T. ) ;
#41 = EDGE_LOOP ( 'NONE', ( #61 ) ) ;
#42 = CLOSED_SHELL ( 'NONE', ( #13, #157, #190, #98, #149 ) ) ;
#43 = DIRECTION ( 'NONE',  ( 4.275831445896958607E-31, 1.000000000000000000, 1.224646799147352961E-16 ) ) ;
#44 = PERSON ( 'UNSPECIFIED', 'UNSPECIFIED', 'UNSPECIFIED', ('UNSPECIFIED'), ('UNSPECIFIED'), ('UNSPECIFIED') ) ;
#45 = DIRECTION ( 'NONE',  ( -3.491481338843133355E-15, 1.224646799147353207E-16, -1.000000000000000000 ) ) ;
#46 = PLANE ( 'NONE',  #11 ) ;
#47 = AXIS2_PLACEMENT_3D ( 'NONE', #175, #176, #69 ) ;
#48 = CARTESIAN_POINT ( 'NONE',  ( 1.728867372168408893E-14, 0.4999999999999963363, 4.951672955930078501 ) ) ;
#49 = DIRECTION ( 'NONE',  ( -3.491481338843133355E-15, 1.224646799147353207E-16, -1.000000000000000000 ) ) ;
#50 = APPROVAL_ROLE ( '' ) ;
#51 = DATE_AND_TIME ( #70, #57 ) ;
#52 = ADVANCED_FACE ( 'NONE', ( #162 ), #172, .T. ) ;
#53 = LOCAL_TIME ( 7, 16, 32.00000000000000000, #138 ) ;
#54 = PERSON_AND_ORGANIZATION_ROLE ( 'classification_officer' ) ;
#55 = PERSON_AND_ORGANIZATION ( #44, #151 ) ;
#56 = CARTESIAN_POINT ( 'NONE',  ( 1.047444401652940007E-13, 0.3999999999999953038, 30.00000000000000000 ) ) ;
#57 = LOCAL_TIME ( 7, 16, 32.00000000000000000, #12 ) ;
#58 = CALENDAR_DATE ( 2021, 8, 10 ) ;
#59 = AXIS2_PLACEMENT_3D ( 'NONE', #116, #197, #177 ) ;
#60 = ORIENTED_EDGE ( 'NONE', *, *, #222, .T. ) ;
#61 = ORIENTED_EDGE ( 'NONE', *, *, #203, .F. ) ;
#62 = CARTESIAN_POINT ( 'NONE',  ( 1.047444401652940007E-13, -3.673940397442059178E-15, 30.00000000000000000 ) ) ;
#63 = AXIS2_PLACEMENT_3D ( 'NONE', #163, #92, #67 ) ;
#64 = FACE_OUTER_BOUND ( 'NONE', #221, .T. ) ;
#65 = DIRECTION ( 'NONE',  ( 0.0000000000000000000, 1.000000000000000000, 0.0000000000000000000 ) ) ;
#66 = APPROVAL ( #87, 'UNSPECIFIED' ) ;
#67 = DIRECTION ( 'NONE',  ( 0.0000000000000000000, 1.000000000000000000, 0.0000000000000000000 ) ) ;
#68 = PRODUCT_DEFINITION_FORMATION_WITH_SPECIFIED_SOURCE ( 'ANY', '', #118, .NOT_KNOWN. ) ;
#69 = DIRECTION ( 'NONE',  ( 3.930469274259679975E-31, 1.000000000000000000, 1.106328747434192411E-16 ) ) ;
#70 = CALENDAR_DATE ( 2021, 8, 10 ) ;
#71 = PERSON_AND_ORGANIZATION ( #44, #151 ) ;
#72 = CC_DESIGN_APPROVAL ( #17, ( #143 ) ) ;
#73 = APPLICATION_PROTOCOL_DEFINITION ( 'international standard', 'config_control_design', 1994, #109 ) ;
#74 = EDGE_LOOP ( 'NONE', ( #185 ) ) ;
#75 = CC_DESIGN_PERSON_AND_ORGANIZATION_ASSIGNMENT ( #71, #204, ( #68 ) ) ;
#76 = CARTESIAN_POINT ( 'NONE',  ( 0.0000000000000000000, 0.0000000000000000000, 0.0000000000000000000 ) ) ;
#77 = FACE_BOUND ( 'NONE', #41, .T. ) ;
#78 = AXIS2_PLACEMENT_3D ( 'NONE', #7, #25, #148 ) ;
#79 = DIRECTION ( 'NONE',  ( -3.491481338843133355E-15, 1.224646799147353207E-16, -1.000000000000000000 ) ) ;
#80 = CARTESIAN_POINT ( 'NONE',  ( 1.047444401652940007E-13, 2.999519565323652267E-33, 30.00000000000000000 ) ) ;
#81 = DIRECTION ( 'NONE',  ( 4.275831445896958607E-31, 1.000000000000000000, 1.224646799147353207E-16 ) ) ;
#82 = LOCAL_TIME ( 7, 16, 32.00000000000000000, #155 ) ;
#83 = CALENDAR_DATE ( 2021, 8, 10 ) ;
#84 = PERSON_AND_ORGANIZATION_ROLE ( 'design_owner' ) ;
#85 = DIRECTION ( 'NONE',  ( 0.0000000000000000000, 0.0000000000000000000, 1.000000000000000000 ) ) ;
#86 = CC_DESIGN_APPROVAL ( #94, ( #68 ) ) ;
#87 = APPROVAL_STATUS ( 'not_yet_approved' ) ;
#88 = EDGE_LOOP ( 'NONE', ( #161 ) ) ;
#89 = AXIS2_PLACEMENT_3D ( 'NONE', #80, #147, #214 ) ;
#90 = CYLINDRICAL_SURFACE ( 'NONE', #30, 0.2449999999999993849 ) ;
#91 = MANIFOLD_SOLID_BREP ( 'Corps-Déplacer/Copier1[2]', #215 ) ;
#92 = DIRECTION ( 'NONE',  ( -3.491481338843133355E-15, 1.224646799147353207E-16, -1.000000000000000000 ) ) ;
#93 = FACE_OUTER_BOUND ( 'NONE', #16, .T. ) ;
#94 = APPROVAL ( #179, 'UNSPECIFIED' ) ;
#95 = AXIS2_PLACEMENT_3D ( 'NONE', #165, #8, #150 ) ;
#96 = CARTESIAN_POINT ( 'NONE',  ( 1.396592535537253342E-14, -4.898587196589412829E-16, 4.000000000000000000 ) ) ;
#97 = CARTESIAN_POINT ( 'NONE',  ( 1.396592535537253342E-14, 0.2449999999999992462, 4.000000000000000000 ) ) ;
#98 = ADVANCED_FACE ( 'NONE', ( #198, #111 ), #137, .T. ) ;
#99 = VERTEX_POINT ( 'NONE', #33 ) ;
#100 = UNCERTAINTY_MEASURE_WITH_UNIT (LENGTH_MEASURE( 1.000000000000000082E-05 ), #181, 'distance_accuracy_value', 'NONE');
#101 = DATE_AND_TIME ( #83, #82 ) ;
#102 = ADVANCED_FACE ( 'NONE', ( #212 ), #167, .T. ) ;
#103 = CALENDAR_DATE ( 2021, 8, 10 ) ;
#104 = DATE_AND_TIME ( #58, #166 ) ;
#105 = EDGE_LOOP ( 'NONE', ( #188 ) ) ;
#106 = APPROVAL_ROLE ( '' ) ;
#107 = CC_DESIGN_APPROVAL ( #66, ( #174 ) ) ;
#108 = ADVANCED_FACE ( 'NONE', ( #27, #2 ), #90, .T. ) ;
#109 = APPLICATION_CONTEXT ( 'configuration controlled 3d designs of mechanical parts and assemblies' ) ;
#110 = DIRECTION ( 'NONE',  ( 0.0000000000000000000, 1.000000000000000000, 0.0000000000000000000 ) ) ;
#111 = FACE_BOUND ( 'NONE', #88, .T. ) ;
#112 = PLANE ( 'NONE',  #89 ) ;
#113 = APPROVAL_PERSON_ORGANIZATION ( #206, #17, #106 ) ;
#114 = VERTEX_POINT ( 'NONE', #97 ) ;
#115 = EDGE_CURVE ( 'NONE', #168, #168, #201, .T. ) ;
#116 = CARTESIAN_POINT ( 'NONE',  ( 1.396592535537253342E-14, 1.837205733760766059E-33, 4.000000000000000000 ) ) ;
#117 = DATE_TIME_ROLE ( 'creation_date' ) ;
#118 = PRODUCT ( '952685', '952685', '', ( #135 ) ) ;
#119 = CARTESIAN_POINT ( 'NONE',  ( 5.139839414522166066E-16, 0.2449999999999990796, 0.1472108516617533780 ) ) ;
#120 = CALENDAR_DATE ( 2021, 8, 10 ) ;
#121 = PERSON_AND_ORGANIZATION_ROLE ( 'design_supplier' ) ;
#122 = CIRCLE ( 'NONE', #170, 0.4999999999999970024 ) ;
#123 = COORDINATED_UNIVERSAL_TIME_OFFSET ( 1, 0, .AHEAD. ) ;
#124 = EDGE_LOOP ( 'NONE', ( #40 ) ) ;
#125 = EDGE_LOOP ( 'NONE', ( #126 ) ) ;
#126 = ORIENTED_EDGE ( 'NONE', *, *, #4, .T. ) ;
#127 = CARTESIAN_POINT ( 'NONE',  ( 1.396592535537253342E-14, 1.837205733760766059E-33, 4.000000000000000000 ) ) ;
#128 = AXIS2_PLACEMENT_3D ( 'NONE', #134, #20, #209 ) ;
#129 = CC_DESIGN_PERSON_AND_ORGANIZATION_ASSIGNMENT ( #169, #15, ( #174 ) ) ;
#130 = DIRECTION ( 'NONE',  ( -3.491481338843133355E-15, 1.224646799147353207E-16, -1.000000000000000000 ) ) ;
#131 = DIRECTION ( 'NONE',  ( 3.491481338843133355E-15, -1.224646799147353207E-16, 1.000000000000000000 ) ) ;
#132 = DIRECTION ( 'NONE',  ( 0.0000000000000000000, 1.000000000000000000, 0.0000000000000000000 ) ) ;
#133 = AXIS2_PLACEMENT_3D ( 'NONE', #6, #79, #81 ) ;
#134 = CARTESIAN_POINT ( 'NONE',  ( 5.139839414522165080E-16, -1.802812982873220653E-17, 0.1472108516617533502 ) ) ;
#135 = MECHANICAL_CONTEXT ( 'NONE', #109, 'mechanical' ) ;
#136 = VERTEX_POINT ( 'NONE', #56 ) ;
#137 = CONICAL_SURFACE ( 'NONE', #173, 0.3999999999999989675, 0.7853981633974694843 ) ;
#138 = COORDINATED_UNIVERSAL_TIME_OFFSET ( 1, 0, .AHEAD. ) ;
#139 = DATE_AND_TIME ( #103, #53 ) ;
#140 = AXIS2_PLACEMENT_3D ( 'NONE', #96, #49, #132 ) ;
#141 = ORIENTED_EDGE ( 'NONE', *, *, #4, .F. ) ;
#142 = EDGE_LOOP ( 'NONE', ( #18 ) ) ;
#143 = SECURITY_CLASSIFICATION ( '', '', #182 ) ;
#144 = DIRECTION ( 'NONE',  ( -4.275831445896958607E-31, -1.000000000000000000, -1.224646799147353207E-16 ) ) ;
#145 = FACE_OUTER_BOUND ( 'NONE', #189, .T. ) ;
#146 = APPROVAL_PERSON_ORGANIZATION ( #153, #66, #50 ) ;
#147 = DIRECTION ( 'NONE',  ( -3.491481338843133355E-15, 1.224646799147353207E-16, -1.000000000000000000 ) ) ;
#148 = DIRECTION ( 'NONE',  ( 0.0000000000000000000, 1.000000000000000000, 0.0000000000000000000 ) ) ;
#149 = ADVANCED_FACE ( 'NONE', ( #93 ), #112, .F. ) ;
#150 = DIRECTION ( 'NONE',  ( 0.0000000000000000000, -1.000000000000000000, 0.0000000000000000000 ) ) ;
#151 = ORGANIZATION ( 'UNSPECIFIED', 'UNSPECIFIED', '' ) ;
#152 = DIRECTION ( 'NONE',  ( 1.000000000000000000, 0.0000000000000000000, 0.0000000000000000000 ) ) ;
#153 = PERSON_AND_ORGANIZATION ( #44, #151 ) ;
#154 = APPROVAL_DATE_TIME ( #51, #94 ) ;
#155 = COORDINATED_UNIVERSAL_TIME_OFFSET ( 1, 0, .AHEAD. ) ;
#156 = PERSON_AND_ORGANIZATION ( #44, #151 ) ;
#157 = ADVANCED_FACE ( 'NONE', ( #77, #195 ), #24, .T. ) ;
#158 = SHAPE_DEFINITION_REPRESENTATION ( #191, #211 ) ;
#159 = CC_DESIGN_PERSON_AND_ORGANIZATION_ASSIGNMENT ( #55, #121, ( #68 ) ) ;
#160 =( GEOMETRIC_REPRESENTATION_CONTEXT ( 3 ) GLOBAL_UNCERTAINTY_ASSIGNED_CONTEXT ( ( #100 ) ) GLOBAL_UNIT_ASSIGNED_CONTEXT ( ( #181, #171, #183 ) ) REPRESENTATION_CONTEXT ( 'NONE', 'WORKASPACE' ) );
#161 = ORIENTED_EDGE ( 'NONE', *, *, #196, .T. ) ;
#162 = FACE_OUTER_BOUND ( 'NONE', #207, .T. ) ;
#163 = CARTESIAN_POINT ( 'NONE',  ( 1.047444401652940007E-13, -3.673940397442059178E-15, 30.00000000000000000 ) ) ;
#164 = MANIFOLD_SOLID_BREP ( 'Corps-Déplacer/Copier1[1]', #42 ) ;
#165 = CARTESIAN_POINT ( 'NONE',  ( 1.728867372168408893E-14, -6.064050435904283600E-16, 4.951672955930078501 ) ) ;
#166 = LOCAL_TIME ( 7, 16, 32.00000000000000000, #123 ) ;
#167 = PLANE ( 'NONE',  #59 ) ;
#168 = VERTEX_POINT ( 'NONE', #119 ) ;
#169 = PERSON_AND_ORGANIZATION ( #44, #151 ) ;
#170 = AXIS2_PLACEMENT_3D ( 'NONE', #205, #194, #23 ) ;
#171 =( NAMED_UNIT ( * ) PLANE_ANGLE_UNIT ( ) SI_UNIT ( $, .RADIAN. ) );
#172 = CONICAL_SURFACE ( 'NONE', #128, 0.2449999999999990796, 1.029744258676649649 ) ;
#173 = AXIS2_PLACEMENT_3D ( 'NONE', #62, #45, #110 ) ;
#174 = PRODUCT_DEFINITION ( 'UNKNOWN', '', #68, #28 ) ;
#175 = CARTESIAN_POINT ( 'NONE',  ( 5.139839414522165080E-16, -1.802812982873220653E-17, 0.1472108516617533502 ) ) ;
#176 = DIRECTION ( 'NONE',  ( -3.491481338843133355E-15, 1.224646799147353207E-16, -1.000000000000000000 ) ) ;
#177 = DIRECTION ( 'NONE',  ( -4.275831445896958607E-31, -1.000000000000000000, -1.224646799147353207E-16 ) ) ;
#178 = AXIS2_PLACEMENT_3D ( 'NONE', #10, #85, #152 ) ;
#179 = APPROVAL_STATUS ( 'not_yet_approved' ) ;
#180 = CIRCLE ( 'NONE', #140, 0.2449999999999997180 ) ;
#181 =( LENGTH_UNIT ( ) NAMED_UNIT ( * ) SI_UNIT ( .MILLI., .METRE. ) );
#182 = SECURITY_CLASSIFICATION_LEVEL ( 'unclassified' ) ;
#183 =( NAMED_UNIT ( * ) SI_UNIT ( $, .STERADIAN. ) SOLID_ANGLE_UNIT ( ) );
#184 = APPLICATION_CONTEXT ( 'configuration controlled 3d designs of mechanical parts and assemblies' ) ;
#185 = ORIENTED_EDGE ( 'NONE', *, *, #222, .F. ) ;
#186 = DATE_TIME_ROLE ( 'classification_date' ) ;
#187 = CC_DESIGN_SECURITY_CLASSIFICATION ( #143, ( #68 ) ) ;
#188 = ORIENTED_EDGE ( 'NONE', *, *, #35, .F. ) ;
#189 = EDGE_LOOP ( 'NONE', ( #141 ) ) ;
#190 = ADVANCED_FACE ( 'NONE', ( #145, #64 ), #21, .T. ) ;
#191 = PRODUCT_DEFINITION_SHAPE ( 'NONE', 'NONE',  #174 ) ;
#192 = CIRCLE ( 'NONE', #63, 0.3999999999999989675 ) ;
#193 = DIRECTION ( 'NONE',  ( -3.491481338843133355E-15, 1.224646799147353207E-16, -1.000000000000000000 ) ) ;
#194 = DIRECTION ( 'NONE',  ( -3.491481338843133355E-15, 1.224646799147353207E-16, -1.000000000000000000 ) ) ;
#195 = FACE_OUTER_BOUND ( 'NONE', #125, .T. ) ;
#196 = EDGE_CURVE ( 'NONE', #136, #136, #192, .T. ) ;
#197 = DIRECTION ( 'NONE',  ( 3.491481338843133355E-15, -1.224646799147353207E-16, 1.000000000000000000 ) ) ;
#198 = FACE_OUTER_BOUND ( 'NONE', #74, .T. ) ;
#199 = CC_DESIGN_PERSON_AND_ORGANIZATION_ASSIGNMENT ( #31, #84, ( #118 ) ) ;
#200 = APPLICATION_PROTOCOL_DEFINITION ( 'international standard', 'config_control_design', 1994, #184 ) ;
#201 = CIRCLE ( 'NONE', #47, 0.2449999999999990796 ) ;
#202 = PERSON_AND_ORGANIZATION ( #44, #151 ) ;
#203 = EDGE_CURVE ( 'NONE', #99, #99, #223, .T. ) ;
#204 = PERSON_AND_ORGANIZATION_ROLE ( 'creator' ) ;
#205 = CARTESIAN_POINT ( 'NONE',  ( 1.728867372168408893E-14, -6.064050435904283600E-16, 4.951672955930078501 ) ) ;
#206 = PERSON_AND_ORGANIZATION ( #44, #151 ) ;
#207 = EDGE_LOOP ( 'NONE', ( #1 ) ) ;
#208 = EDGE_LOOP ( 'NONE', ( #39 ) ) ;
#209 = DIRECTION ( 'NONE',  ( -3.930469274259679975E-31, -1.000000000000000000, -1.106328747434192411E-16 ) ) ;
#210 = CARTESIAN_POINT ( 'NONE',  ( 1.396592535537253342E-14, -4.898587196589412829E-16, 4.000000000000000000 ) ) ;
#211 = ADVANCED_BREP_SHAPE_REPRESENTATION ( '952685', ( #164, #91, #178 ), #160 ) ;
#212 = FACE_OUTER_BOUND ( 'NONE', #105, .T. ) ;
#213 = VERTEX_POINT ( 'NONE', #48 ) ;
#214 = DIRECTION ( 'NONE',  ( 4.275831445896958607E-31, 1.000000000000000000, 1.224646799147353207E-16 ) ) ;
#215 = CLOSED_SHELL ( 'NONE', ( #52, #108, #102 ) ) ;
#216 = CC_DESIGN_DATE_AND_TIME_ASSIGNMENT ( #220, #186, ( #143 ) ) ;
#217 = CARTESIAN_POINT ( 'NONE',  ( 1.043952920314096936E-13, 0.4999999999999954481, 29.90000000000000213 ) ) ;
#218 = APPROVAL_DATE_TIME ( #139, #66 ) ;
#219 = APPROVAL_ROLE ( '' ) ;
#220 = DATE_AND_TIME ( #120, #5 ) ;
#221 = EDGE_LOOP ( 'NONE', ( #60 ) ) ;
#222 = EDGE_CURVE ( 'NONE', #29, #29, #34, .T. ) ;
#223 = CIRCLE ( 'NONE', #19, 0.2449999999999997180 ) ;
ENDSEC;
END-ISO-10303-21;
