ISO-10303-21;
HEADER;
FILE_DESCRIPTION (( 'STEP AP203' ),
    '1' );
FILE_NAME ('952684.step',
    '2021-10-08T05:16:31',
    ( '' ),
    ( '' ),
    'SwSTEP 2.0',
    'SolidWorks 2019',
    '' );
FILE_SCHEMA (( 'CONFIG_CONTROL_DESIGN' ));
ENDSEC;

DATA;
#1 = DIRECTION ( 'NONE',  ( 4.275831445896958607E-31, 1.000000000000000000, 1.224646799147353207E-16 ) ) ;
#2 = PERSON_AND_ORGANIZATION ( #182, #188 ) ;
#3 = AXIS2_PLACEMENT_3D ( 'NONE', #93, #45, #30 ) ;
#4 = SHAPE_DEFINITION_REPRESENTATION ( #109, #104 ) ;
#5 = APPROVAL_DATE_TIME ( #140, #176 ) ;
#6 = DATE_AND_TIME ( #91, #39 ) ;
#7 = CIRCLE ( 'NONE', #138, 0.4999999999999991673 ) ;
#8 = DIRECTION ( 'NONE',  ( -3.491481338843133355E-15, 1.224646799147353207E-16, -1.000000000000000000 ) ) ;
#9 = APPLICATION_CONTEXT ( 'configuration controlled 3d designs of mechanical parts and assemblies' ) ;
#10 = EDGE_LOOP ( 'NONE', ( #129 ) ) ;
#11 = APPROVAL ( #35, 'UNSPECIFIED' ) ;
#12 = CARTESIAN_POINT ( 'NONE',  ( 1.256933281983528008E-14, -4.408728476930471151E-16, 3.600000000000000089 ) ) ;
#13 = APPROVAL_PERSON_ORGANIZATION ( #21, #15, #58 ) ;
#14 = ORIENTED_EDGE ( 'NONE', *, *, #130, .F. ) ;
#15 = APPROVAL ( #88, 'UNSPECIFIED' ) ;
#16 = CARTESIAN_POINT ( 'NONE',  ( 1.595723311489804070E-14, -5.597043936624065624E-16, 4.570333209967923693 ) ) ;
#17 = PERSON_AND_ORGANIZATION_ROLE ( 'design_owner' ) ;
#18 = FACE_BOUND ( 'NONE', #10, .T. ) ;
#19 = PERSON_AND_ORGANIZATION ( #182, #188 ) ;
#20 = CC_DESIGN_APPROVAL ( #15, ( #206 ) ) ;
#21 = PERSON_AND_ORGANIZATION ( #182, #188 ) ;
#22 = ADVANCED_FACE ( 'NONE', ( #43, #214 ), #98, .T. ) ;
#23 = ORIENTED_EDGE ( 'NONE', *, *, #202, .T. ) ;
#24 = LOCAL_TIME ( 7, 16, 31.00000000000000000, #171 ) ;
#25 = SECURITY_CLASSIFICATION_LEVEL ( 'unclassified' ) ;
#26 = DESIGN_CONTEXT ( 'detailed design', #9, 'design' ) ;
#27 = APPLICATION_CONTEXT ( 'configuration controlled 3d designs of mechanical parts and assemblies' ) ;
#28 = CONICAL_SURFACE ( 'NONE', #38, 0.2399999999999990752, 1.029744258676649649 ) ;
#29 = DIRECTION ( 'NONE',  ( 4.012354050806756541E-31, 1.000000000000000000, 1.129377263005738058E-16 ) ) ;
#30 = DIRECTION ( 'NONE',  ( 0.0000000000000000000, 1.000000000000000000, 0.0000000000000000000 ) ) ;
#31 = EDGE_CURVE ( 'NONE', #221, #221, #156, .T. ) ;
#32 = EDGE_LOOP ( 'NONE', ( #194 ) ) ;
#33 = CARTESIAN_POINT ( 'NONE',  ( 1.256933281983528008E-14, 1.799711739194218319E-33, 3.600000000000000089 ) ) ;
#34 = CYLINDRICAL_SURFACE ( 'NONE', #172, 0.4999999999999980571 ) ;
#35 = APPROVAL_STATUS ( 'not_yet_approved' ) ;
#36 = CIRCLE ( 'NONE', #184, 0.3999999999999989675 ) ;
#37 =( NAMED_UNIT ( * ) SI_UNIT ( $, .STERADIAN. ) SOLID_ANGLE_UNIT ( ) );
#38 = AXIS2_PLACEMENT_3D ( 'NONE', #175, #173, #191 ) ;
#39 = LOCAL_TIME ( 7, 16, 31.00000000000000000, #211 ) ;
#40 = ORIENTED_EDGE ( 'NONE', *, *, #31, .F. ) ;
#41 = ADVANCED_FACE ( 'NONE', ( #95 ), #46, .F. ) ;
#42 = CALENDAR_DATE ( 2021, 8, 10 ) ;
#43 = FACE_OUTER_BOUND ( 'NONE', #63, .T. ) ;
#44 = AXIS2_PLACEMENT_3D ( 'NONE', #208, #55, #201 ) ;
#45 = DIRECTION ( 'NONE',  ( -3.491481338843133355E-15, 1.224646799147353207E-16, -1.000000000000000000 ) ) ;
#46 = PLANE ( 'NONE',  #223 ) ;
#47 = EDGE_LOOP ( 'NONE', ( #110 ) ) ;
#48 = PRODUCT_RELATED_PRODUCT_CATEGORY ( 'detail', '', ( #115 ) ) ;
#49 = CARTESIAN_POINT ( 'NONE',  ( 1.256933281983528008E-14, -4.408728476930471151E-16, 3.600000000000000089 ) ) ;
#50 = DIRECTION ( 'NONE',  ( -3.491481338843133355E-15, 1.224646799147353207E-16, -1.000000000000000000 ) ) ;
#51 = FACE_OUTER_BOUND ( 'NONE', #218, .T. ) ;
#52 = EDGE_CURVE ( 'NONE', #219, #219, #68, .T. ) ;
#53 = CLOSED_SHELL ( 'NONE', ( #41, #209, #118, #22, #100 ) ) ;
#54 = VERTEX_POINT ( 'NONE', #190 ) ;
#55 = DIRECTION ( 'NONE',  ( 0.0000000000000000000, 0.0000000000000000000, 1.000000000000000000 ) ) ;
#56 = MANIFOLD_SOLID_BREP ( 'Corps-Déplacer/Copier1[1]', #53 ) ;
#57 = PRODUCT_DEFINITION_FORMATION_WITH_SPECIFIED_SOURCE ( 'ANY', '', #115, .NOT_KNOWN. ) ;
#58 = APPROVAL_ROLE ( '' ) ;
#59 = PERSON_AND_ORGANIZATION_ROLE ( 'creator' ) ;
#60 = EDGE_CURVE ( 'NONE', #137, #137, #7, .T. ) ;
#61 = APPROVAL_ROLE ( '' ) ;
#62 = CARTESIAN_POINT ( 'NONE',  ( 5.034944732593140276E-16, -1.766020881181929995E-17, 0.1442065485666154945 ) ) ;
#63 = EDGE_LOOP ( 'NONE', ( #112 ) ) ;
#64 = AXIS2_PLACEMENT_3D ( 'NONE', #12, #79, #217 ) ;
#65 = ORIENTED_EDGE ( 'NONE', *, *, #60, .T. ) ;
#66 = EDGE_LOOP ( 'NONE', ( #183 ) ) ;
#67 = EDGE_LOOP ( 'NONE', ( #65 ) ) ;
#68 = CIRCLE ( 'NONE', #150, 0.2399999999999994360 ) ;
#69 = CARTESIAN_POINT ( 'NONE',  ( 1.256933281983528008E-14, 0.2399999999999989919, 3.600000000000000089 ) ) ;
#70 = CARTESIAN_POINT ( 'NONE',  ( 5.034944732593141262E-16, 0.2399999999999990474, 0.1442065485666155222 ) ) ;
#71 = VERTEX_POINT ( 'NONE', #70 ) ;
#72 = PERSON_AND_ORGANIZATION ( #182, #188 ) ;
#73 = PERSON_AND_ORGANIZATION ( #182, #188 ) ;
#74 = PERSON_AND_ORGANIZATION_ROLE ( 'creator' ) ;
#75 = CC_DESIGN_DATE_AND_TIME_ASSIGNMENT ( #159, #107, ( #206 ) ) ;
#76 = PLANE ( 'NONE',  #87 ) ;
#77 = DIRECTION ( 'NONE',  ( -3.491481338843133355E-15, 1.224646799147353207E-16, -1.000000000000000000 ) ) ;
#78 = APPROVAL_PERSON_ORGANIZATION ( #72, #176, #61 ) ;
#79 = DIRECTION ( 'NONE',  ( -3.491481338843133355E-15, 1.224646799147353207E-16, -1.000000000000000000 ) ) ;
#80 = DIRECTION ( 'NONE',  ( -3.491481338843133355E-15, 1.224646799147353207E-16, -1.000000000000000000 ) ) ;
#81 = CALENDAR_DATE ( 2021, 8, 10 ) ;
#82 = CC_DESIGN_PERSON_AND_ORGANIZATION_ASSIGNMENT ( #2, #74, ( #57 ) ) ;
#83 = CARTESIAN_POINT ( 'NONE',  ( 1.047444401652940007E-13, -3.673940397442059178E-15, 30.00000000000000000 ) ) ;
#84 = MECHANICAL_CONTEXT ( 'NONE', #27, 'mechanical' ) ;
#85 = CC_DESIGN_DATE_AND_TIME_ASSIGNMENT ( #141, #105, ( #90 ) ) ;
#86 = PERSON_AND_ORGANIZATION ( #182, #188 ) ;
#87 = AXIS2_PLACEMENT_3D ( 'NONE', #117, #77, #113 ) ;
#88 = APPROVAL_STATUS ( 'not_yet_approved' ) ;
#89 = APPROVAL_DATE_TIME ( #220, #11 ) ;
#90 = PRODUCT_DEFINITION ( 'UNKNOWN', '', #57, #26 ) ;
#91 = CALENDAR_DATE ( 2021, 8, 10 ) ;
#92 = CIRCLE ( 'NONE', #127, 0.2399999999999990752 ) ;
#93 = CARTESIAN_POINT ( 'NONE',  ( 1.047444401652940007E-13, -3.673940397442059178E-15, 30.00000000000000000 ) ) ;
#94 = DIRECTION ( 'NONE',  ( -4.275831445896958607E-31, -1.000000000000000000, -1.224646799147353207E-16 ) ) ;
#95 = FACE_OUTER_BOUND ( 'NONE', #47, .T. ) ;
#96 = CARTESIAN_POINT ( 'NONE',  ( 0.0000000000000000000, 0.0000000000000000000, 0.0000000000000000000 ) ) ;
#97 = APPROVAL_ROLE ( '' ) ;
#98 = CONICAL_SURFACE ( 'NONE', #3, 0.3999999999999989675, 0.7853981633974694843 ) ;
#99 = APPLICATION_PROTOCOL_DEFINITION ( 'international standard', 'config_control_design', 1994, #27 ) ;
#100 = ADVANCED_FACE ( 'NONE', ( #165 ), #76, .F. ) ;
#101 = CARTESIAN_POINT ( 'NONE',  ( 1.595723311489804070E-14, -5.597043936624065624E-16, 4.570333209967923693 ) ) ;
#102 = APPROVAL_STATUS ( 'not_yet_approved' ) ;
#103 = ADVANCED_FACE ( 'NONE', ( #189 ), #149, .T. ) ;
#104 = ADVANCED_BREP_SHAPE_REPRESENTATION ( '952684', ( #56, #204, #44 ), #216 ) ;
#105 = DATE_TIME_ROLE ( 'creation_date' ) ;
#106 = LOCAL_TIME ( 7, 16, 31.00000000000000000, #139 ) ;
#107 = DATE_TIME_ROLE ( 'classification_date' ) ;
#108 = EDGE_CURVE ( 'NONE', #222, #222, #116, .T. ) ;
#109 = PRODUCT_DEFINITION_SHAPE ( 'NONE', 'NONE',  #90 ) ;
#110 = ORIENTED_EDGE ( 'NONE', *, *, #108, .T. ) ;
#111 = AXIS2_PLACEMENT_3D ( 'NONE', #166, #215, #151 ) ;
#112 = ORIENTED_EDGE ( 'NONE', *, *, #60, .F. ) ;
#113 = DIRECTION ( 'NONE',  ( 4.275831445896958607E-31, 1.000000000000000000, 1.224646799147353207E-16 ) ) ;
#114 = ORIENTED_EDGE ( 'NONE', *, *, #52, .T. ) ;
#115 = PRODUCT ( '952684', '952684', '', ( #84 ) ) ;
#116 = CIRCLE ( 'NONE', #64, 0.2399999999999994360 ) ;
#117 = CARTESIAN_POINT ( 'NONE',  ( 1.047444401652940007E-13, 2.999519565323652267E-33, 30.00000000000000000 ) ) ;
#118 = ADVANCED_FACE ( 'NONE', ( #199, #152 ), #34, .T. ) ;
#119 = CARTESIAN_POINT ( 'NONE',  ( 0.0000000000000000000, 0.0000000000000000000, 0.0000000000000000000 ) ) ;
#120 = FACE_OUTER_BOUND ( 'NONE', #147, .T. ) ;
#121 = CC_DESIGN_APPROVAL ( #11, ( #90 ) ) ;
#122 = DIRECTION ( 'NONE',  ( 0.0000000000000000000, -1.000000000000000000, 0.0000000000000000000 ) ) ;
#123 =( NAMED_UNIT ( * ) PLANE_ANGLE_UNIT ( ) SI_UNIT ( $, .RADIAN. ) );
#124 = FACE_OUTER_BOUND ( 'NONE', #195, .T. ) ;
#125 = APPROVAL_PERSON_ORGANIZATION ( #86, #11, #97 ) ;
#126 = PERSON_AND_ORGANIZATION ( #182, #188 ) ;
#127 = AXIS2_PLACEMENT_3D ( 'NONE', #62, #128, #29 ) ;
#128 = DIRECTION ( 'NONE',  ( -3.491481338843133355E-15, 1.224646799147353207E-16, -1.000000000000000000 ) ) ;
#129 = ORIENTED_EDGE ( 'NONE', *, *, #108, .F. ) ;
#130 = EDGE_CURVE ( 'NONE', #71, #71, #92, .T. ) ;
#131 = DIRECTION ( 'NONE',  ( -3.491481338843133355E-15, 1.224646799147353207E-16, -1.000000000000000000 ) ) ;
#132 = ORIENTED_EDGE ( 'NONE', *, *, #130, .T. ) ;
#133 = ORIENTED_EDGE ( 'NONE', *, *, #31, .T. ) ;
#134 = AXIS2_PLACEMENT_3D ( 'NONE', #101, #154, #122 ) ;
#135 = CLOSED_SHELL ( 'NONE', ( #174, #148, #103 ) ) ;
#136 = CARTESIAN_POINT ( 'NONE',  ( 1.595723311489804070E-14, 0.4999999999999963363, 4.570333209967923693 ) ) ;
#137 = VERTEX_POINT ( 'NONE', #203 ) ;
#138 = AXIS2_PLACEMENT_3D ( 'NONE', #169, #80, #198 ) ;
#139 = COORDINATED_UNIVERSAL_TIME_OFFSET ( 1, 0, .AHEAD. ) ;
#140 = DATE_AND_TIME ( #161, #212 ) ;
#141 = DATE_AND_TIME ( #158, #180 ) ;
#142 = PERSON_AND_ORGANIZATION_ROLE ( 'classification_officer' ) ;
#143 = CC_DESIGN_PERSON_AND_ORGANIZATION_ASSIGNMENT ( #126, #59, ( #90 ) ) ;
#144 = APPROVAL_DATE_TIME ( #6, #15 ) ;
#145 = CC_DESIGN_APPROVAL ( #176, ( #57 ) ) ;
#146 = DIRECTION ( 'NONE',  ( 0.0000000000000000000, 1.000000000000000000, 0.0000000000000000000 ) ) ;
#147 = EDGE_LOOP ( 'NONE', ( #133 ) ) ;
#148 = ADVANCED_FACE ( 'NONE', ( #124, #51 ), #207, .T. ) ;
#149 = PLANE ( 'NONE',  #111 ) ;
#150 = AXIS2_PLACEMENT_3D ( 'NONE', #49, #8, #185 ) ;
#151 = DIRECTION ( 'NONE',  ( -4.275831445896958607E-31, -1.000000000000000000, -1.224646799147353207E-16 ) ) ;
#152 = FACE_OUTER_BOUND ( 'NONE', #67, .T. ) ;
#153 = DIRECTION ( 'NONE',  ( -3.491481338843133355E-15, 1.224646799147353207E-16, -1.000000000000000000 ) ) ;
#154 = DIRECTION ( 'NONE',  ( 3.491481338843133355E-15, -1.224646799147353207E-16, 1.000000000000000000 ) ) ;
#155 = DIRECTION ( 'NONE',  ( 0.0000000000000000000, 1.000000000000000000, 0.0000000000000000000 ) ) ;
#156 = CIRCLE ( 'NONE', #193, 0.4999999999999968914 ) ;
#157 = APPLICATION_PROTOCOL_DEFINITION ( 'international standard', 'config_control_design', 1994, #9 ) ;
#158 = CALENDAR_DATE ( 2021, 8, 10 ) ;
#159 = DATE_AND_TIME ( #42, #106 ) ;
#160 = CONICAL_SURFACE ( 'NONE', #134, 0.4999999999999968914, 0.2617993877991429685 ) ;
#161 = CALENDAR_DATE ( 2021, 8, 10 ) ;
#162 = PERSON_AND_ORGANIZATION_ROLE ( 'design_supplier' ) ;
#163 = CC_DESIGN_SECURITY_CLASSIFICATION ( #206, ( #57 ) ) ;
#164 = EDGE_LOOP ( 'NONE', ( #40 ) ) ;
#165 = FACE_OUTER_BOUND ( 'NONE', #32, .T. ) ;
#166 = CARTESIAN_POINT ( 'NONE',  ( 1.256933281983528008E-14, 1.799711739194218319E-33, 3.600000000000000089 ) ) ;
#167 = CC_DESIGN_PERSON_AND_ORGANIZATION_ASSIGNMENT ( #210, #142, ( #206 ) ) ;
#168 = UNCERTAINTY_MEASURE_WITH_UNIT (LENGTH_MEASURE( 1.000000000000000082E-05 ), #192, 'distance_accuracy_value', 'NONE');
#169 = CARTESIAN_POINT ( 'NONE',  ( 1.043952920314096936E-13, -3.661693929450586610E-15, 29.90000000000000213 ) ) ;
#170 = DIRECTION ( 'NONE',  ( -3.491481338843133355E-15, 1.224646799147353207E-16, -1.000000000000000000 ) ) ;
#171 = COORDINATED_UNIVERSAL_TIME_OFFSET ( 1, 0, .AHEAD. ) ;
#172 = AXIS2_PLACEMENT_3D ( 'NONE', #96, #170, #213 ) ;
#173 = DIRECTION ( 'NONE',  ( 3.491481338843133355E-15, -1.224646799147353207E-16, 1.000000000000000000 ) ) ;
#174 = ADVANCED_FACE ( 'NONE', ( #177 ), #28, .T. ) ;
#175 = CARTESIAN_POINT ( 'NONE',  ( 5.034944732593140276E-16, -1.766020881181929995E-17, 0.1442065485666154945 ) ) ;
#176 = APPROVAL ( #102, 'UNSPECIFIED' ) ;
#177 = FACE_OUTER_BOUND ( 'NONE', #196, .T. ) ;
#178 = COORDINATED_UNIVERSAL_TIME_OFFSET ( 1, 0, .AHEAD. ) ;
#179 = CC_DESIGN_PERSON_AND_ORGANIZATION_ASSIGNMENT ( #73, #162, ( #57 ) ) ;
#180 = LOCAL_TIME ( 7, 16, 31.00000000000000000, #181 ) ;
#181 = COORDINATED_UNIVERSAL_TIME_OFFSET ( 1, 0, .AHEAD. ) ;
#182 = PERSON ( 'UNSPECIFIED', 'UNSPECIFIED', 'UNSPECIFIED', ('UNSPECIFIED'), ('UNSPECIFIED'), ('UNSPECIFIED') ) ;
#183 = ORIENTED_EDGE ( 'NONE', *, *, #52, .F. ) ;
#184 = AXIS2_PLACEMENT_3D ( 'NONE', #83, #153, #155 ) ;
#185 = DIRECTION ( 'NONE',  ( 0.0000000000000000000, 1.000000000000000000, 0.0000000000000000000 ) ) ;
#186 = CC_DESIGN_PERSON_AND_ORGANIZATION_ASSIGNMENT ( #19, #17, ( #115 ) ) ;
#187 = DIRECTION ( 'NONE',  ( 3.491481338843133355E-15, -1.224646799147353207E-16, 1.000000000000000000 ) ) ;
#188 = ORGANIZATION ( 'UNSPECIFIED', 'UNSPECIFIED', '' ) ;
#189 = FACE_OUTER_BOUND ( 'NONE', #66, .T. ) ;
#190 = CARTESIAN_POINT ( 'NONE',  ( 1.047444401652940007E-13, 0.3999999999999953038, 30.00000000000000000 ) ) ;
#191 = DIRECTION ( 'NONE',  ( -4.012354050806756541E-31, -1.000000000000000000, -1.129377263005738058E-16 ) ) ;
#192 =( LENGTH_UNIT ( ) NAMED_UNIT ( * ) SI_UNIT ( .MILLI., .METRE. ) );
#193 = AXIS2_PLACEMENT_3D ( 'NONE', #16, #131, #146 ) ;
#194 = ORIENTED_EDGE ( 'NONE', *, *, #202, .F. ) ;
#195 = EDGE_LOOP ( 'NONE', ( #14 ) ) ;
#196 = EDGE_LOOP ( 'NONE', ( #132 ) ) ;
#197 = AXIS2_PLACEMENT_3D ( 'NONE', #119, #50, #1 ) ;
#198 = DIRECTION ( 'NONE',  ( 0.0000000000000000000, 1.000000000000000000, 0.0000000000000000000 ) ) ;
#199 = FACE_OUTER_BOUND ( 'NONE', #164, .T. ) ;
#200 = EDGE_LOOP ( 'NONE', ( #23 ) ) ;
#201 = DIRECTION ( 'NONE',  ( 1.000000000000000000, 0.0000000000000000000, 0.0000000000000000000 ) ) ;
#202 = EDGE_CURVE ( 'NONE', #54, #54, #36, .T. ) ;
#203 = CARTESIAN_POINT ( 'NONE',  ( 1.043952920314096936E-13, 0.4999999999999954481, 29.90000000000000213 ) ) ;
#204 = MANIFOLD_SOLID_BREP ( 'Corps-Déplacer/Copier1[2]', #135 ) ;
#205 = CARTESIAN_POINT ( 'NONE',  ( 1.256933281983528008E-14, 0.2399999999999989919, 3.600000000000000089 ) ) ;
#206 = SECURITY_CLASSIFICATION ( '', '', #25 ) ;
#207 = CYLINDRICAL_SURFACE ( 'NONE', #197, 0.2399999999999992695 ) ;
#208 = CARTESIAN_POINT ( 'NONE',  ( 0.0000000000000000000, 0.0000000000000000000, 0.0000000000000000000 ) ) ;
#209 = ADVANCED_FACE ( 'NONE', ( #18, #120 ), #160, .T. ) ;
#210 = PERSON_AND_ORGANIZATION ( #182, #188 ) ;
#211 = COORDINATED_UNIVERSAL_TIME_OFFSET ( 1, 0, .AHEAD. ) ;
#212 = LOCAL_TIME ( 7, 16, 31.00000000000000000, #178 ) ;
#213 = DIRECTION ( 'NONE',  ( 4.275831445896958607E-31, 1.000000000000000000, 1.224646799147353207E-16 ) ) ;
#214 = FACE_BOUND ( 'NONE', #200, .T. ) ;
#215 = DIRECTION ( 'NONE',  ( 3.491481338843133355E-15, -1.224646799147353207E-16, 1.000000000000000000 ) ) ;
#216 =( GEOMETRIC_REPRESENTATION_CONTEXT ( 3 ) GLOBAL_UNCERTAINTY_ASSIGNED_CONTEXT ( ( #168 ) ) GLOBAL_UNIT_ASSIGNED_CONTEXT ( ( #192, #123, #37 ) ) REPRESENTATION_CONTEXT ( 'NONE', 'WORKASPACE' ) );
#217 = DIRECTION ( 'NONE',  ( 0.0000000000000000000, 1.000000000000000000, 0.0000000000000000000 ) ) ;
#218 = EDGE_LOOP ( 'NONE', ( #114 ) ) ;
#219 = VERTEX_POINT ( 'NONE', #205 ) ;
#220 = DATE_AND_TIME ( #81, #24 ) ;
#221 = VERTEX_POINT ( 'NONE', #136 ) ;
#222 = VERTEX_POINT ( 'NONE', #69 ) ;
#223 = AXIS2_PLACEMENT_3D ( 'NONE', #33, #187, #94 ) ;
ENDSEC;
END-ISO-10303-21;
