ISO-10303-21;
HEADER;
FILE_DESCRIPTION (( 'STEP AP203' ),
    '1' );
FILE_NAME ('952683.step',
    '2021-10-08T05:16:30',
    ( '' ),
    ( '' ),
    'SwSTEP 2.0',
    'SolidWorks 2019',
    '' );
FILE_SCHEMA (( 'CONFIG_CONTROL_DESIGN' ));
ENDSEC;

DATA;
#1 = SECURITY_CLASSIFICATION ( '', '', #188 ) ;
#2 = ORIENTED_EDGE ( 'NONE', *, *, #212, .T. ) ;
#3 = ADVANCED_FACE ( 'NONE', ( #73, #33 ), #137, .T. ) ;
#4 = CARTESIAN_POINT ( 'NONE',  ( 1.043952920314096936E-13, 0.4999999999999954481, 29.90000000000000213 ) ) ;
#5 = EDGE_CURVE ( 'NONE', #215, #215, #132, .T. ) ;
#6 = DIRECTION ( 'NONE',  ( 3.491481338843133355E-15, -1.224646799147353207E-16, 1.000000000000000000 ) ) ;
#7 = DIRECTION ( 'NONE',  ( -3.491481338843133355E-15, 1.224646799147353207E-16, -1.000000000000000000 ) ) ;
#8 = CLOSED_SHELL ( 'NONE', ( #133, #19, #3, #219, #175 ) ) ;
#9 = AXIS2_PLACEMENT_3D ( 'NONE', #129, #7, #125 ) ;
#10 = DIRECTION ( 'NONE',  ( 1.000000000000000000, 0.0000000000000000000, 0.0000000000000000000 ) ) ;
#11 = DATE_TIME_ROLE ( 'classification_date' ) ;
#12 = APPROVAL_PERSON_ORGANIZATION ( #117, #112, #13 ) ;
#13 = APPROVAL_ROLE ( '' ) ;
#14 = EDGE_LOOP ( 'NONE', ( #36 ) ) ;
#15 = CARTESIAN_POINT ( 'NONE',  ( 1.602238504364924897E-14, -5.619896157002789817E-16, 4.588993464005769241 ) ) ;
#16 = EDGE_LOOP ( 'NONE', ( #69 ) ) ;
#17 = ORIENTED_EDGE ( 'NONE', *, *, #115, .F. ) ;
#18 = DIRECTION ( 'NONE',  ( -3.491481338843133355E-15, 1.224646799147353207E-16, -1.000000000000000000 ) ) ;
#19 = ADVANCED_FACE ( 'NONE', ( #121, #196 ), #206, .T. ) ;
#20 = CC_DESIGN_APPROVAL ( #68, ( #60 ) ) ;
#21 = DIRECTION ( 'NONE',  ( 0.0000000000000000000, 1.000000000000000000, 0.0000000000000000000 ) ) ;
#22 = VERTEX_POINT ( 'NONE', #108 ) ;
#23 = DESIGN_CONTEXT ( 'detailed design', #139, 'design' ) ;
#24 = FACE_OUTER_BOUND ( 'NONE', #221, .T. ) ;
#25 = PERSON_AND_ORGANIZATION ( #174, #113 ) ;
#26 = AXIS2_PLACEMENT_3D ( 'NONE', #88, #210, #157 ) ;
#27 = COORDINATED_UNIVERSAL_TIME_OFFSET ( 1, 0, .AHEAD. ) ;
#28 = CC_DESIGN_PERSON_AND_ORGANIZATION_ASSIGNMENT ( #64, #59, ( #184 ) ) ;
#29 = COORDINATED_UNIVERSAL_TIME_OFFSET ( 1, 0, .AHEAD. ) ;
#30 = CLOSED_SHELL ( 'NONE', ( #182, #90, #110 ) ) ;
#31 = DATE_AND_TIME ( #191, #50 ) ;
#32 = CARTESIAN_POINT ( 'NONE',  ( 0.0000000000000000000, 0.0000000000000000000, 0.0000000000000000000 ) ) ;
#33 = FACE_OUTER_BOUND ( 'NONE', #14, .T. ) ;
#34 = AXIS2_PLACEMENT_3D ( 'NONE', #42, #54, #165 ) ;
#35 = CYLINDRICAL_SURFACE ( 'NONE', #143, 0.2349999999999992650 ) ;
#36 = ORIENTED_EDGE ( 'NONE', *, *, #97, .T. ) ;
#37 = APPROVAL_PERSON_ORGANIZATION ( #96, #222, #136 ) ;
#38 = CARTESIAN_POINT ( 'NONE',  ( 1.047444401652940007E-13, 2.999519565323652267E-33, 30.00000000000000000 ) ) ;
#39 = PRODUCT_DEFINITION_SHAPE ( 'NONE', 'NONE',  #60 ) ;
#40 = LOCAL_TIME ( 7, 16, 30.00000000000000000, #99 ) ;
#41 = CARTESIAN_POINT ( 'NONE',  ( 1.256933281983528008E-14, 1.762217744627671947E-33, 3.600000000000000089 ) ) ;
#42 = CARTESIAN_POINT ( 'NONE',  ( 1.256933281983528008E-14, 1.762217744627671947E-33, 3.600000000000000089 ) ) ;
#43 = PERSON_AND_ORGANIZATION_ROLE ( 'design_supplier' ) ;
#44 = PERSON_AND_ORGANIZATION_ROLE ( 'creator' ) ;
#45 = PERSON_AND_ORGANIZATION ( #174, #113 ) ;
#46 = APPROVAL_DATE_TIME ( #189, #68 ) ;
#47 = FACE_OUTER_BOUND ( 'NONE', #156, .T. ) ;
#48 = ORIENTED_EDGE ( 'NONE', *, *, #107, .F. ) ;
#49 = EDGE_LOOP ( 'NONE', ( #89 ) ) ;
#50 = LOCAL_TIME ( 7, 16, 30.00000000000000000, #29 ) ;
#51 = EDGE_LOOP ( 'NONE', ( #72 ) ) ;
#52 = EDGE_LOOP ( 'NONE', ( #70 ) ) ;
#53 = CARTESIAN_POINT ( 'NONE',  ( 1.256933281983528008E-14, -4.408728476930471151E-16, 3.600000000000000089 ) ) ;
#54 = DIRECTION ( 'NONE',  ( 3.491481338843133355E-15, -1.224646799147353207E-16, 1.000000000000000000 ) ) ;
#55 =( LENGTH_UNIT ( ) NAMED_UNIT ( * ) SI_UNIT ( .MILLI., .METRE. ) );
#56 = CARTESIAN_POINT ( 'NONE',  ( 4.930050050664115473E-16, 0.2349999999999990430, 0.1412022454714776387 ) ) ;
#57 = AXIS2_PLACEMENT_3D ( 'NONE', #105, #178, #146 ) ;
#58 = CARTESIAN_POINT ( 'NONE',  ( 1.256933281983528008E-14, 0.2349999999999989875, 3.600000000000000089 ) ) ;
#59 = PERSON_AND_ORGANIZATION_ROLE ( 'creator' ) ;
#60 = PRODUCT_DEFINITION ( 'UNKNOWN', '', #184, #23 ) ;
#61 = APPROVAL_STATUS ( 'not_yet_approved' ) ;
#62 = AXIS2_PLACEMENT_3D ( 'NONE', #183, #213, #75 ) ;
#63 = CARTESIAN_POINT ( 'NONE',  ( 0.0000000000000000000, 0.0000000000000000000, 0.0000000000000000000 ) ) ;
#64 = PERSON_AND_ORGANIZATION ( #174, #113 ) ;
#65 = ADVANCED_BREP_SHAPE_REPRESENTATION ( '952683', ( #128, #205, #74 ), #194 ) ;
#66 = CIRCLE ( 'NONE', #106, 0.2349999999999994316 ) ;
#67 = LOCAL_TIME ( 7, 16, 30.00000000000000000, #27 ) ;
#68 = APPROVAL ( #100, 'UNSPECIFIED' ) ;
#69 = ORIENTED_EDGE ( 'NONE', *, *, #5, .F. ) ;
#70 = ORIENTED_EDGE ( 'NONE', *, *, #97, .F. ) ;
#71 = ORIENTED_EDGE ( 'NONE', *, *, #115, .T. ) ;
#72 = ORIENTED_EDGE ( 'NONE', *, *, #212, .F. ) ;
#73 = FACE_OUTER_BOUND ( 'NONE', #207, .T. ) ;
#74 = AXIS2_PLACEMENT_3D ( 'NONE', #63, #98, #10 ) ;
#75 = DIRECTION ( 'NONE',  ( 0.0000000000000000000, 1.000000000000000000, 0.0000000000000000000 ) ) ;
#76 = VERTEX_POINT ( 'NONE', #214 ) ;
#77 = EDGE_CURVE ( 'NONE', #216, #216, #158, .T. ) ;
#78 = FACE_OUTER_BOUND ( 'NONE', #123, .T. ) ;
#79 = CONICAL_SURFACE ( 'NONE', #92, 0.3999999999999989675, 0.7853981633974694843 ) ;
#80 = VERTEX_POINT ( 'NONE', #58 ) ;
#81 = PERSON_AND_ORGANIZATION ( #174, #113 ) ;
#82 = PERSON_AND_ORGANIZATION_ROLE ( 'design_owner' ) ;
#83 = DATE_TIME_ROLE ( 'creation_date' ) ;
#84 = CC_DESIGN_PERSON_AND_ORGANIZATION_ASSIGNMENT ( #81, #82, ( #192 ) ) ;
#85 = CIRCLE ( 'NONE', #57, 0.4999999999999991673 ) ;
#86 = DIRECTION ( 'NONE',  ( 4.275831445896958607E-31, 1.000000000000000000, 1.224646799147353207E-16 ) ) ;
#87 = CC_DESIGN_APPROVAL ( #222, ( #1 ) ) ;
#88 = CARTESIAN_POINT ( 'NONE',  ( 1.602238504364924897E-14, -5.619896157002789817E-16, 4.588993464005769241 ) ) ;
#89 = ORIENTED_EDGE ( 'NONE', *, *, #77, .T. ) ;
#90 = ADVANCED_FACE ( 'NONE', ( #141, #47 ), #35, .T. ) ;
#91 = CARTESIAN_POINT ( 'NONE',  ( 1.602238504364924897E-14, 0.4999999999999963363, 4.588993464005769241 ) ) ;
#92 = AXIS2_PLACEMENT_3D ( 'NONE', #164, #18, #144 ) ;
#93 = DIRECTION ( 'NONE',  ( -3.491481338843133355E-15, 1.224646799147353207E-16, -1.000000000000000000 ) ) ;
#94 = CC_DESIGN_DATE_AND_TIME_ASSIGNMENT ( #120, #11, ( #1 ) ) ;
#95 = CIRCLE ( 'NONE', #9, 0.3999999999999989675 ) ;
#96 = PERSON_AND_ORGANIZATION ( #174, #113 ) ;
#97 = EDGE_CURVE ( 'NONE', #185, #185, #85, .T. ) ;
#98 = DIRECTION ( 'NONE',  ( 0.0000000000000000000, 0.0000000000000000000, 1.000000000000000000 ) ) ;
#99 = COORDINATED_UNIVERSAL_TIME_OFFSET ( 1, 0, .AHEAD. ) ;
#100 = APPROVAL_STATUS ( 'not_yet_approved' ) ;
#101 = APPLICATION_CONTEXT ( 'configuration controlled 3d designs of mechanical parts and assemblies' ) ;
#102 = DIRECTION ( 'NONE',  ( 4.097723285930305261E-31, 1.000000000000000000, 1.153406566473945450E-16 ) ) ;
#103 = EDGE_LOOP ( 'NONE', ( #48 ) ) ;
#104 = CARTESIAN_POINT ( 'NONE',  ( 0.0000000000000000000, 0.0000000000000000000, 0.0000000000000000000 ) ) ;
#105 = CARTESIAN_POINT ( 'NONE',  ( 1.043952920314096936E-13, -3.661693929450586610E-15, 29.90000000000000213 ) ) ;
#106 = AXIS2_PLACEMENT_3D ( 'NONE', #53, #93, #21 ) ;
#107 = EDGE_CURVE ( 'NONE', #80, #80, #66, .T. ) ;
#108 = CARTESIAN_POINT ( 'NONE',  ( 1.256933281983528008E-14, 0.2349999999999989875, 3.600000000000000089 ) ) ;
#109 = PLANE ( 'NONE',  #34 ) ;
#110 = ADVANCED_FACE ( 'NONE', ( #145 ), #109, .T. ) ;
#111 = DIRECTION ( 'NONE',  ( -4.097723285930305261E-31, -1.000000000000000000, -1.153406566473945450E-16 ) ) ;
#112 = APPROVAL ( #61, 'UNSPECIFIED' ) ;
#113 = ORGANIZATION ( 'UNSPECIFIED', 'UNSPECIFIED', '' ) ;
#114 = APPROVAL_DATE_TIME ( #217, #112 ) ;
#115 = EDGE_CURVE ( 'NONE', #76, #76, #95, .T. ) ;
#116 = PERSON_AND_ORGANIZATION ( #174, #113 ) ;
#117 = PERSON_AND_ORGANIZATION ( #174, #113 ) ;
#118 = PERSON_AND_ORGANIZATION_ROLE ( 'classification_officer' ) ;
#119 = CC_DESIGN_SECURITY_CLASSIFICATION ( #1, ( #184 ) ) ;
#120 = DATE_AND_TIME ( #152, #67 ) ;
#121 = FACE_BOUND ( 'NONE', #51, .T. ) ;
#122 = LOCAL_TIME ( 7, 16, 30.00000000000000000, #168 ) ;
#123 = EDGE_LOOP ( 'NONE', ( #17 ) ) ;
#124 = DIRECTION ( 'NONE',  ( 3.491481338843133355E-15, -1.224646799147353207E-16, 1.000000000000000000 ) ) ;
#125 = DIRECTION ( 'NONE',  ( 0.0000000000000000000, 1.000000000000000000, 0.0000000000000000000 ) ) ;
#126 = CC_DESIGN_DATE_AND_TIME_ASSIGNMENT ( #31, #83, ( #60 ) ) ;
#127 =( NAMED_UNIT ( * ) PLANE_ANGLE_UNIT ( ) SI_UNIT ( $, .RADIAN. ) );
#128 = MANIFOLD_SOLID_BREP ( 'Corps-Déplacer/Copier1[1]', #8 ) ;
#129 = CARTESIAN_POINT ( 'NONE',  ( 1.047444401652940007E-13, -3.673940397442059178E-15, 30.00000000000000000 ) ) ;
#130 = CALENDAR_DATE ( 2021, 8, 10 ) ;
#131 = PERSON_AND_ORGANIZATION ( #174, #113 ) ;
#132 = CIRCLE ( 'NONE', #190, 0.2349999999999990707 ) ;
#133 = ADVANCED_FACE ( 'NONE', ( #24 ), #200, .F. ) ;
#134 = MECHANICAL_CONTEXT ( 'NONE', #101, 'mechanical' ) ;
#135 = CC_DESIGN_PERSON_AND_ORGANIZATION_ASSIGNMENT ( #116, #118, ( #1 ) ) ;
#136 = APPROVAL_ROLE ( '' ) ;
#137 = CYLINDRICAL_SURFACE ( 'NONE', #147, 0.4999999999999980571 ) ;
#138 = DIRECTION ( 'NONE',  ( -3.491481338843133355E-15, 1.224646799147353207E-16, -1.000000000000000000 ) ) ;
#139 = APPLICATION_CONTEXT ( 'configuration controlled 3d designs of mechanical parts and assemblies' ) ;
#140 = CARTESIAN_POINT ( 'NONE',  ( 4.930050050664114487E-16, -1.729228779490639029E-17, 0.1412022454714776110 ) ) ;
#141 = FACE_OUTER_BOUND ( 'NONE', #16, .T. ) ;
#142 = FACE_OUTER_BOUND ( 'NONE', #52, .T. ) ;
#143 = AXIS2_PLACEMENT_3D ( 'NONE', #104, #177, #197 ) ;
#144 = DIRECTION ( 'NONE',  ( 0.0000000000000000000, 1.000000000000000000, 0.0000000000000000000 ) ) ;
#145 = FACE_OUTER_BOUND ( 'NONE', #103, .T. ) ;
#146 = DIRECTION ( 'NONE',  ( 0.0000000000000000000, 1.000000000000000000, 0.0000000000000000000 ) ) ;
#147 = AXIS2_PLACEMENT_3D ( 'NONE', #32, #159, #86 ) ;
#148 = CALENDAR_DATE ( 2021, 8, 10 ) ;
#149 = UNCERTAINTY_MEASURE_WITH_UNIT (LENGTH_MEASURE( 1.000000000000000082E-05 ), #55, 'distance_accuracy_value', 'NONE');
#150 = APPROVAL_DATE_TIME ( #187, #222 ) ;
#151 = AXIS2_PLACEMENT_3D ( 'NONE', #38, #211, #162 ) ;
#152 = CALENDAR_DATE ( 2021, 8, 10 ) ;
#153 = COORDINATED_UNIVERSAL_TIME_OFFSET ( 1, 0, .AHEAD. ) ;
#154 = CONICAL_SURFACE ( 'NONE', #163, 0.2349999999999990707, 1.029744258676649871 ) ;
#155 = ORIENTED_EDGE ( 'NONE', *, *, #77, .F. ) ;
#156 = EDGE_LOOP ( 'NONE', ( #223 ) ) ;
#157 = DIRECTION ( 'NONE',  ( 0.0000000000000000000, -1.000000000000000000, 0.0000000000000000000 ) ) ;
#158 = CIRCLE ( 'NONE', #167, 0.4999999999999968914 ) ;
#159 = DIRECTION ( 'NONE',  ( -3.491481338843133355E-15, 1.224646799147353207E-16, -1.000000000000000000 ) ) ;
#160 = FACE_OUTER_BOUND ( 'NONE', #173, .T. ) ;
#161 = LOCAL_TIME ( 7, 16, 30.00000000000000000, #153 ) ;
#162 = DIRECTION ( 'NONE',  ( 4.275831445896958607E-31, 1.000000000000000000, 1.224646799147353207E-16 ) ) ;
#163 = AXIS2_PLACEMENT_3D ( 'NONE', #180, #124, #111 ) ;
#164 = CARTESIAN_POINT ( 'NONE',  ( 1.047444401652940007E-13, -3.673940397442059178E-15, 30.00000000000000000 ) ) ;
#165 = DIRECTION ( 'NONE',  ( -4.275831445896958607E-31, -1.000000000000000000, -1.224646799147353207E-16 ) ) ;
#166 = APPLICATION_PROTOCOL_DEFINITION ( 'international standard', 'config_control_design', 1994, #101 ) ;
#167 = AXIS2_PLACEMENT_3D ( 'NONE', #15, #195, #220 ) ;
#168 = COORDINATED_UNIVERSAL_TIME_OFFSET ( 1, 0, .AHEAD. ) ;
#169 = PRODUCT_RELATED_PRODUCT_CATEGORY ( 'detail', '', ( #192 ) ) ;
#170 = CC_DESIGN_APPROVAL ( #112, ( #184 ) ) ;
#171 = APPROVAL_STATUS ( 'not_yet_approved' ) ;
#172 = APPROVAL_ROLE ( '' ) ;
#173 = EDGE_LOOP ( 'NONE', ( #209 ) ) ;
#174 = PERSON ( 'UNSPECIFIED', 'UNSPECIFIED', 'UNSPECIFIED', ('UNSPECIFIED'), ('UNSPECIFIED'), ('UNSPECIFIED') ) ;
#175 = ADVANCED_FACE ( 'NONE', ( #78 ), #199, .F. ) ;
#176 = CC_DESIGN_PERSON_AND_ORGANIZATION_ASSIGNMENT ( #25, #43, ( #184 ) ) ;
#177 = DIRECTION ( 'NONE',  ( -3.491481338843133355E-15, 1.224646799147353207E-16, -1.000000000000000000 ) ) ;
#178 = DIRECTION ( 'NONE',  ( -3.491481338843133355E-15, 1.224646799147353207E-16, -1.000000000000000000 ) ) ;
#179 = CIRCLE ( 'NONE', #62, 0.2349999999999994316 ) ;
#180 = CARTESIAN_POINT ( 'NONE',  ( 4.930050050664114487E-16, -1.729228779490639029E-17, 0.1412022454714776110 ) ) ;
#181 = FACE_BOUND ( 'NONE', #193, .T. ) ;
#182 = ADVANCED_FACE ( 'NONE', ( #160 ), #154, .T. ) ;
#183 = CARTESIAN_POINT ( 'NONE',  ( 1.256933281983528008E-14, -4.408728476930471151E-16, 3.600000000000000089 ) ) ;
#184 = PRODUCT_DEFINITION_FORMATION_WITH_SPECIFIED_SOURCE ( 'ANY', '', #192, .NOT_KNOWN. ) ;
#185 = VERTEX_POINT ( 'NONE', #4 ) ;
#186 = APPLICATION_PROTOCOL_DEFINITION ( 'international standard', 'config_control_design', 1994, #139 ) ;
#187 = DATE_AND_TIME ( #130, #161 ) ;
#188 = SECURITY_CLASSIFICATION_LEVEL ( 'unclassified' ) ;
#189 = DATE_AND_TIME ( #204, #122 ) ;
#190 = AXIS2_PLACEMENT_3D ( 'NONE', #140, #138, #102 ) ;
#191 = CALENDAR_DATE ( 2021, 8, 10 ) ;
#192 = PRODUCT ( '952683', '952683', '', ( #134 ) ) ;
#193 = EDGE_LOOP ( 'NONE', ( #71 ) ) ;
#194 =( GEOMETRIC_REPRESENTATION_CONTEXT ( 3 ) GLOBAL_UNCERTAINTY_ASSIGNED_CONTEXT ( ( #149 ) ) GLOBAL_UNIT_ASSIGNED_CONTEXT ( ( #55, #127, #201 ) ) REPRESENTATION_CONTEXT ( 'NONE', 'WORKASPACE' ) );
#195 = DIRECTION ( 'NONE',  ( -3.491481338843133355E-15, 1.224646799147353207E-16, -1.000000000000000000 ) ) ;
#196 = FACE_OUTER_BOUND ( 'NONE', #49, .T. ) ;
#197 = DIRECTION ( 'NONE',  ( 4.275831445896957731E-31, 1.000000000000000000, 1.224646799147353207E-16 ) ) ;
#198 = DIRECTION ( 'NONE',  ( -4.275831445896958607E-31, -1.000000000000000000, -1.224646799147353207E-16 ) ) ;
#199 = PLANE ( 'NONE',  #151 ) ;
#200 = PLANE ( 'NONE',  #203 ) ;
#201 =( NAMED_UNIT ( * ) SI_UNIT ( $, .STERADIAN. ) SOLID_ANGLE_UNIT ( ) );
#202 = SHAPE_DEFINITION_REPRESENTATION ( #39, #65 ) ;
#203 = AXIS2_PLACEMENT_3D ( 'NONE', #41, #6, #198 ) ;
#204 = CALENDAR_DATE ( 2021, 8, 10 ) ;
#205 = MANIFOLD_SOLID_BREP ( 'Corps-Déplacer/Copier1[2]', #30 ) ;
#206 = CONICAL_SURFACE ( 'NONE', #26, 0.4999999999999968914, 0.2617993877991428020 ) ;
#207 = EDGE_LOOP ( 'NONE', ( #155 ) ) ;
#208 = CC_DESIGN_PERSON_AND_ORGANIZATION_ASSIGNMENT ( #131, #44, ( #60 ) ) ;
#209 = ORIENTED_EDGE ( 'NONE', *, *, #5, .T. ) ;
#210 = DIRECTION ( 'NONE',  ( 3.491481338843133355E-15, -1.224646799147353207E-16, 1.000000000000000000 ) ) ;
#211 = DIRECTION ( 'NONE',  ( -3.491481338843133355E-15, 1.224646799147353207E-16, -1.000000000000000000 ) ) ;
#212 = EDGE_CURVE ( 'NONE', #22, #22, #179, .T. ) ;
#213 = DIRECTION ( 'NONE',  ( -3.491481338843133355E-15, 1.224646799147353207E-16, -1.000000000000000000 ) ) ;
#214 = CARTESIAN_POINT ( 'NONE',  ( 1.047444401652940007E-13, 0.3999999999999953038, 30.00000000000000000 ) ) ;
#215 = VERTEX_POINT ( 'NONE', #56 ) ;
#216 = VERTEX_POINT ( 'NONE', #91 ) ;
#217 = DATE_AND_TIME ( #148, #40 ) ;
#218 = APPROVAL_PERSON_ORGANIZATION ( #45, #68, #172 ) ;
#219 = ADVANCED_FACE ( 'NONE', ( #142, #181 ), #79, .T. ) ;
#220 = DIRECTION ( 'NONE',  ( 0.0000000000000000000, 1.000000000000000000, 0.0000000000000000000 ) ) ;
#221 = EDGE_LOOP ( 'NONE', ( #2 ) ) ;
#222 = APPROVAL ( #171, 'UNSPECIFIED' ) ;
#223 = ORIENTED_EDGE ( 'NONE', *, *, #107, .T. ) ;
ENDSEC;
END-ISO-10303-21;
