ISO-10303-21;
HEADER;
FILE_DESCRIPTION (( 'STEP AP203' ),
    '1' );
FILE_NAME ('952682.step',
    '2021-10-08T05:16:30',
    ( '' ),
    ( '' ),
    'SwSTEP 2.0',
    'SolidWorks 2019',
    '' );
FILE_SCHEMA (( 'CONFIG_CONTROL_DESIGN' ));
ENDSEC;

DATA;
#1 = CARTESIAN_POINT ( 'NONE',  ( 1.047444401652940007E-13, 0.3999999999999953038, 30.00000000000000000 ) ) ;
#2 = FACE_OUTER_BOUND ( 'NONE', #164, .T. ) ;
#3 = DIRECTION ( 'NONE',  ( 3.491481338843133355E-15, -1.224646799147353207E-16, 1.000000000000000000 ) ) ;
#4 = DIRECTION ( 'NONE',  ( -3.491481338843133355E-15, 1.224646799147353207E-16, -1.000000000000000000 ) ) ;
#5 = APPROVAL_PERSON_ORGANIZATION ( #94, #136, #129 ) ;
#6 = ADVANCED_FACE ( 'NONE', ( #133, #186 ), #180, .T. ) ;
#7 = LOCAL_TIME ( 7, 16, 30.00000000000000000, #24 ) ;
#8 = CYLINDRICAL_SURFACE ( 'NONE', #21, 0.2299999999999993161 ) ;
#9 = CARTESIAN_POINT ( 'NONE',  ( 1.047444401652940007E-13, -3.673940397442059178E-15, 30.00000000000000000 ) ) ;
#10 = DATE_TIME_ROLE ( 'creation_date' ) ;
#11 = DIRECTION ( 'NONE',  ( -3.491481338843133355E-15, 1.224646799147353207E-16, -1.000000000000000000 ) ) ;
#12 = PRODUCT ( '952682', '952682', '', ( #159 ) ) ;
#13 = APPLICATION_PROTOCOL_DEFINITION ( 'international standard', 'config_control_design', 1994, #140 ) ;
#14 = AXIS2_PLACEMENT_3D ( 'NONE', #43, #161, #103 ) ;
#15 = DATE_AND_TIME ( #158, #192 ) ;
#16 = CC_DESIGN_PERSON_AND_ORGANIZATION_ASSIGNMENT ( #22, #181, ( #79 ) ) ;
#17 = AXIS2_PLACEMENT_3D ( 'NONE', #170, #11, #184 ) ;
#18 = LOCAL_TIME ( 7, 16, 30.00000000000000000, #42 ) ;
#19 = PRODUCT_RELATED_PRODUCT_CATEGORY ( 'detail', '', ( #12 ) ) ;
#20 = ADVANCED_FACE ( 'NONE', ( #91 ), #65, .T. ) ;
#21 = AXIS2_PLACEMENT_3D ( 'NONE', #117, #68, #52 ) ;
#22 = PERSON_AND_ORGANIZATION ( #182, #38 ) ;
#23 = EDGE_CURVE ( 'NONE', #143, #143, #206, .T. ) ;
#24 = COORDINATED_UNIVERSAL_TIME_OFFSET ( 1, 0, .AHEAD. ) ;
#25 = ORIENTED_EDGE ( 'NONE', *, *, #179, .F. ) ;
#26 = AXIS2_PLACEMENT_3D ( 'NONE', #119, #51, #128 ) ;
#27 = PERSON_AND_ORGANIZATION_ROLE ( 'design_owner' ) ;
#28 = AXIS2_PLACEMENT_3D ( 'NONE', #56, #3, #194 ) ;
#29 = EDGE_CURVE ( 'NONE', #32, #32, #74, .T. ) ;
#30 = CC_DESIGN_DATE_AND_TIME_ASSIGNMENT ( #15, #10, ( #187 ) ) ;
#31 = AXIS2_PLACEMENT_3D ( 'NONE', #107, #100, #72 ) ;
#32 = VERTEX_POINT ( 'NONE', #145 ) ;
#33 = DIRECTION ( 'NONE',  ( -4.275831445896958607E-31, -1.000000000000000000, -1.224646799147353207E-16 ) ) ;
#34 = FACE_OUTER_BOUND ( 'NONE', #200, .T. ) ;
#35 = PLANE ( 'NONE',  #49 ) ;
#36 = DIRECTION ( 'NONE',  ( 3.491481338843133355E-15, -1.224646799147353207E-16, 1.000000000000000000 ) ) ;
#37 = EDGE_LOOP ( 'NONE', ( #197 ) ) ;
#38 = ORGANIZATION ( 'UNSPECIFIED', 'UNSPECIFIED', '' ) ;
#39 = CARTESIAN_POINT ( 'NONE',  ( 1.256933281983528008E-14, -4.408728476930471151E-16, 3.600000000000000089 ) ) ;
#40 = DATE_AND_TIME ( #82, #7 ) ;
#41 = CARTESIAN_POINT ( 'NONE',  ( 1.047444401652940007E-13, 2.999519565323652267E-33, 30.00000000000000000 ) ) ;
#42 = COORDINATED_UNIVERSAL_TIME_OFFSET ( 1, 0, .AHEAD. ) ;
#43 = CARTESIAN_POINT ( 'NONE',  ( 0.0000000000000000000, 0.0000000000000000000, 0.0000000000000000000 ) ) ;
#44 = ORIENTED_EDGE ( 'NONE', *, *, #179, .T. ) ;
#45 = APPROVAL_STATUS ( 'not_yet_approved' ) ;
#46 = CC_DESIGN_SECURITY_CLASSIFICATION ( #79, ( #167 ) ) ;
#47 = ADVANCED_FACE ( 'NONE', ( #87 ), #209, .F. ) ;
#48 = APPROVAL ( #45, 'UNSPECIFIED' ) ;
#49 = AXIS2_PLACEMENT_3D ( 'NONE', #193, #76, #33 ) ;
#50 = CARTESIAN_POINT ( 'NONE',  ( 1.043952920314096936E-13, -3.661693929450586610E-15, 29.90000000000000213 ) ) ;
#51 = DIRECTION ( 'NONE',  ( -3.491481338843133355E-15, 1.224646799147353207E-16, -1.000000000000000000 ) ) ;
#52 = DIRECTION ( 'NONE',  ( 4.275831445896958607E-31, 1.000000000000000000, 1.224646799147352961E-16 ) ) ;
#53 = MANIFOLD_SOLID_BREP ( 'Corps-Déplacer/Copier1[2]', #163 ) ;
#54 = CARTESIAN_POINT ( 'NONE',  ( 4.825155368735090669E-16, -1.692436677799349296E-17, 0.1381979423763398107 ) ) ;
#55 = DIRECTION ( 'NONE',  ( 0.0000000000000000000, 1.000000000000000000, 0.0000000000000000000 ) ) ;
#56 = CARTESIAN_POINT ( 'NONE',  ( 4.825155368735090669E-16, -1.692436677799349296E-17, 0.1381979423763398107 ) ) ;
#57 = PERSON_AND_ORGANIZATION ( #182, #38 ) ;
#58 = CIRCLE ( 'NONE', #191, 0.3999999999999989675 ) ;
#59 = APPROVAL_ROLE ( '' ) ;
#60 = CALENDAR_DATE ( 2021, 8, 10 ) ;
#61 = ADVANCED_FACE ( 'NONE', ( #174, #34 ), #121, .T. ) ;
#62 = DIRECTION ( 'NONE',  ( 0.0000000000000000000, 0.0000000000000000000, 1.000000000000000000 ) ) ;
#63 = EDGE_LOOP ( 'NONE', ( #215 ) ) ;
#64 = ORIENTED_EDGE ( 'NONE', *, *, #86, .T. ) ;
#65 = CONICAL_SURFACE ( 'NONE', #28, 0.2299999999999991218, 1.029744258676649871 ) ;
#66 = CC_DESIGN_APPROVAL ( #48, ( #187 ) ) ;
#67 = AXIS2_PLACEMENT_3D ( 'NONE', #39, #172, #101 ) ;
#68 = DIRECTION ( 'NONE',  ( -3.491481338843133355E-15, 1.224646799147353207E-16, -1.000000000000000000 ) ) ;
#69 = DIRECTION ( 'NONE',  ( 4.275831445896958607E-31, 1.000000000000000000, 1.224646799147353207E-16 ) ) ;
#70 = PRODUCT_DEFINITION_SHAPE ( 'NONE', 'NONE',  #187 ) ;
#71 = FACE_OUTER_BOUND ( 'NONE', #134, .T. ) ;
#72 = DIRECTION ( 'NONE',  ( -4.275831445896958607E-31, -1.000000000000000000, -1.224646799147353207E-16 ) ) ;
#73 = EDGE_LOOP ( 'NONE', ( #44 ) ) ;
#74 = CIRCLE ( 'NONE', #17, 0.2299999999999995104 ) ;
#75 = AXIS2_PLACEMENT_3D ( 'NONE', #54, #92, #139 ) ;
#76 = DIRECTION ( 'NONE',  ( 3.491481338843133355E-15, -1.224646799147353207E-16, 1.000000000000000000 ) ) ;
#77 = CC_DESIGN_DATE_AND_TIME_ASSIGNMENT ( #78, #97, ( #79 ) ) ;
#78 = DATE_AND_TIME ( #149, #112 ) ;
#79 = SECURITY_CLASSIFICATION ( '', '', #178 ) ;
#80 = COORDINATED_UNIVERSAL_TIME_OFFSET ( 1, 0, .AHEAD. ) ;
#81 = ORIENTED_EDGE ( 'NONE', *, *, #168, .T. ) ;
#82 = CALENDAR_DATE ( 2021, 8, 10 ) ;
#83 = EDGE_LOOP ( 'NONE', ( #96 ) ) ;
#84 =( GEOMETRIC_REPRESENTATION_CONTEXT ( 3 ) GLOBAL_UNCERTAINTY_ASSIGNED_CONTEXT ( ( #175 ) ) GLOBAL_UNIT_ASSIGNED_CONTEXT ( ( #88, #115, #190 ) ) REPRESENTATION_CONTEXT ( 'NONE', 'WORKASPACE' ) );
#85 = AXIS2_PLACEMENT_3D ( 'NONE', #90, #36, #202 ) ;
#86 = EDGE_CURVE ( 'NONE', #123, #123, #58, .T. ) ;
#87 = FACE_OUTER_BOUND ( 'NONE', #221, .T. ) ;
#88 =( LENGTH_UNIT ( ) NAMED_UNIT ( * ) SI_UNIT ( .MILLI., .METRE. ) );
#89 = DIRECTION ( 'NONE',  ( -3.491481338843133355E-15, 1.224646799147353207E-16, -1.000000000000000000 ) ) ;
#90 = CARTESIAN_POINT ( 'NONE',  ( 1.608753697240045409E-14, -5.642748377381512039E-16, 4.607653718043613011 ) ) ;
#91 = FACE_OUTER_BOUND ( 'NONE', #73, .T. ) ;
#92 = DIRECTION ( 'NONE',  ( -3.491481338843133355E-15, 1.224646799147353207E-16, -1.000000000000000000 ) ) ;
#93 = COORDINATED_UNIVERSAL_TIME_OFFSET ( 1, 0, .AHEAD. ) ;
#94 = PERSON_AND_ORGANIZATION ( #182, #38 ) ;
#95 = CC_DESIGN_PERSON_AND_ORGANIZATION_ASSIGNMENT ( #132, #201, ( #167 ) ) ;
#96 = ORIENTED_EDGE ( 'NONE', *, *, #29, .T. ) ;
#97 = DATE_TIME_ROLE ( 'classification_date' ) ;
#98 = SHAPE_DEFINITION_REPRESENTATION ( #70, #116 ) ;
#99 = EDGE_LOOP ( 'NONE', ( #64 ) ) ;
#100 = DIRECTION ( 'NONE',  ( 3.491481338843133355E-15, -1.224646799147353207E-16, 1.000000000000000000 ) ) ;
#101 = DIRECTION ( 'NONE',  ( 0.0000000000000000000, 1.000000000000000000, 0.0000000000000000000 ) ) ;
#102 = VERTEX_POINT ( 'NONE', #214 ) ;
#103 = DIRECTION ( 'NONE',  ( 4.275831445896958607E-31, 1.000000000000000000, 1.224646799147353207E-16 ) ) ;
#104 = PERSON_AND_ORGANIZATION ( #182, #38 ) ;
#105 = DESIGN_CONTEXT ( 'detailed design', #137, 'design' ) ;
#106 = APPROVAL_DATE_TIME ( #40, #219 ) ;
#107 = CARTESIAN_POINT ( 'NONE',  ( 1.256933281983528008E-14, 1.724723750061126259E-33, 3.600000000000000089 ) ) ;
#108 = APPLICATION_PROTOCOL_DEFINITION ( 'international standard', 'config_control_design', 1994, #137 ) ;
#109 = CIRCLE ( 'NONE', #111, 0.4999999999999991673 ) ;
#110 = DIRECTION ( 'NONE',  ( 1.000000000000000000, 0.0000000000000000000, 0.0000000000000000000 ) ) ;
#111 = AXIS2_PLACEMENT_3D ( 'NONE', #50, #155, #169 ) ;
#112 = LOCAL_TIME ( 7, 16, 30.00000000000000000, #93 ) ;
#113 = CC_DESIGN_APPROVAL ( #219, ( #167 ) ) ;
#114 = FACE_BOUND ( 'NONE', #99, .T. ) ;
#115 =( NAMED_UNIT ( * ) PLANE_ANGLE_UNIT ( ) SI_UNIT ( $, .RADIAN. ) );
#116 = ADVANCED_BREP_SHAPE_REPRESENTATION ( '952682', ( #204, #53, #138 ), #84 ) ;
#117 = CARTESIAN_POINT ( 'NONE',  ( 0.0000000000000000000, 0.0000000000000000000, 0.0000000000000000000 ) ) ;
#118 = CONICAL_SURFACE ( 'NONE', #26, 0.3999999999999989675, 0.7853981633974694843 ) ;
#119 = CARTESIAN_POINT ( 'NONE',  ( 1.047444401652940007E-13, -3.673940397442059178E-15, 30.00000000000000000 ) ) ;
#120 = CARTESIAN_POINT ( 'NONE',  ( 1.608753697240045409E-14, 0.4999999999999963363, 4.607653718043613011 ) ) ;
#121 = CYLINDRICAL_SURFACE ( 'NONE', #14, 0.4999999999999980571 ) ;
#122 = ADVANCED_FACE ( 'NONE', ( #166, #114 ), #118, .T. ) ;
#123 = VERTEX_POINT ( 'NONE', #1 ) ;
#124 = DIRECTION ( 'NONE',  ( -3.491481338843133355E-15, 1.224646799147353207E-16, -1.000000000000000000 ) ) ;
#125 = COORDINATED_UNIVERSAL_TIME_OFFSET ( 1, 0, .AHEAD. ) ;
#126 = LOCAL_TIME ( 7, 16, 30.00000000000000000, #80 ) ;
#127 = CC_DESIGN_PERSON_AND_ORGANIZATION_ASSIGNMENT ( #207, #27, ( #12 ) ) ;
#128 = DIRECTION ( 'NONE',  ( 0.0000000000000000000, 1.000000000000000000, 0.0000000000000000000 ) ) ;
#129 = APPROVAL_ROLE ( '' ) ;
#130 = APPROVAL_DATE_TIME ( #220, #136 ) ;
#131 = FACE_OUTER_BOUND ( 'NONE', #63, .T. ) ;
#132 = PERSON_AND_ORGANIZATION ( #182, #38 ) ;
#133 = FACE_BOUND ( 'NONE', #156, .T. ) ;
#134 = EDGE_LOOP ( 'NONE', ( #25 ) ) ;
#135 = CC_DESIGN_PERSON_AND_ORGANIZATION_ASSIGNMENT ( #173, #203, ( #167 ) ) ;
#136 = APPROVAL ( #216, 'UNSPECIFIED' ) ;
#137 = APPLICATION_CONTEXT ( 'configuration controlled 3d designs of mechanical parts and assemblies' ) ;
#138 = AXIS2_PLACEMENT_3D ( 'NONE', #223, #62, #110 ) ;
#139 = DIRECTION ( 'NONE',  ( 4.186804226928789587E-31, 1.000000000000000000, 1.178480622266857147E-16 ) ) ;
#140 = APPLICATION_CONTEXT ( 'configuration controlled 3d designs of mechanical parts and assemblies' ) ;
#141 = FACE_OUTER_BOUND ( 'NONE', #83, .T. ) ;
#142 = ADVANCED_FACE ( 'NONE', ( #131 ), #205, .F. ) ;
#143 = VERTEX_POINT ( 'NONE', #212 ) ;
#144 = CIRCLE ( 'NONE', #75, 0.2299999999999991218 ) ;
#145 = CARTESIAN_POINT ( 'NONE',  ( 1.256933281983528008E-14, 0.2299999999999990941, 3.600000000000000089 ) ) ;
#146 = PERSON_AND_ORGANIZATION ( #182, #38 ) ;
#147 = CALENDAR_DATE ( 2021, 8, 10 ) ;
#148 = ORIENTED_EDGE ( 'NONE', *, *, #23, .T. ) ;
#149 = CALENDAR_DATE ( 2021, 8, 10 ) ;
#150 = ORIENTED_EDGE ( 'NONE', *, *, #23, .F. ) ;
#151 = APPROVAL_DATE_TIME ( #176, #48 ) ;
#152 = CLOSED_SHELL ( 'NONE', ( #47, #6, #61, #122, #142 ) ) ;
#153 = DIRECTION ( 'NONE',  ( 0.0000000000000000000, 1.000000000000000000, 0.0000000000000000000 ) ) ;
#154 = CIRCLE ( 'NONE', #185, 0.4999999999999968914 ) ;
#155 = DIRECTION ( 'NONE',  ( -3.491481338843133355E-15, 1.224646799147353207E-16, -1.000000000000000000 ) ) ;
#156 = EDGE_LOOP ( 'NONE', ( #150 ) ) ;
#157 = CARTESIAN_POINT ( 'NONE',  ( 1.608753697240045409E-14, -5.642748377381512039E-16, 4.607653718043613011 ) ) ;
#158 = CALENDAR_DATE ( 2021, 8, 10 ) ;
#159 = MECHANICAL_CONTEXT ( 'NONE', #140, 'mechanical' ) ;
#160 = PERSON_AND_ORGANIZATION_ROLE ( 'creator' ) ;
#161 = DIRECTION ( 'NONE',  ( -3.491481338843133355E-15, 1.224646799147353207E-16, -1.000000000000000000 ) ) ;
#162 = ORIENTED_EDGE ( 'NONE', *, *, #29, .F. ) ;
#163 = CLOSED_SHELL ( 'NONE', ( #20, #210, #218 ) ) ;
#164 = EDGE_LOOP ( 'NONE', ( #162 ) ) ;
#165 = EDGE_CURVE ( 'NONE', #195, #195, #154, .T. ) ;
#166 = FACE_OUTER_BOUND ( 'NONE', #37, .T. ) ;
#167 = PRODUCT_DEFINITION_FORMATION_WITH_SPECIFIED_SOURCE ( 'ANY', '', #12, .NOT_KNOWN. ) ;
#168 = EDGE_CURVE ( 'NONE', #102, #102, #109, .T. ) ;
#169 = DIRECTION ( 'NONE',  ( 0.0000000000000000000, 1.000000000000000000, 0.0000000000000000000 ) ) ;
#170 = CARTESIAN_POINT ( 'NONE',  ( 1.256933281983528008E-14, -4.408728476930471151E-16, 3.600000000000000089 ) ) ;
#171 = APPROVAL_ROLE ( '' ) ;
#172 = DIRECTION ( 'NONE',  ( -3.491481338843133355E-15, 1.224646799147353207E-16, -1.000000000000000000 ) ) ;
#173 = PERSON_AND_ORGANIZATION ( #182, #38 ) ;
#174 = FACE_OUTER_BOUND ( 'NONE', #183, .T. ) ;
#175 = UNCERTAINTY_MEASURE_WITH_UNIT (LENGTH_MEASURE( 1.000000000000000082E-05 ), #88, 'distance_accuracy_value', 'NONE');
#176 = DATE_AND_TIME ( #60, #18 ) ;
#177 = ORIENTED_EDGE ( 'NONE', *, *, #165, .T. ) ;
#178 = SECURITY_CLASSIFICATION_LEVEL ( 'unclassified' ) ;
#179 = EDGE_CURVE ( 'NONE', #196, #196, #144, .T. ) ;
#180 = CONICAL_SURFACE ( 'NONE', #85, 0.4999999999999968914, 0.2617993877991429685 ) ;
#181 = PERSON_AND_ORGANIZATION_ROLE ( 'classification_officer' ) ;
#182 = PERSON ( 'UNSPECIFIED', 'UNSPECIFIED', 'UNSPECIFIED', ('UNSPECIFIED'), ('UNSPECIFIED'), ('UNSPECIFIED') ) ;
#183 = EDGE_LOOP ( 'NONE', ( #222 ) ) ;
#184 = DIRECTION ( 'NONE',  ( 0.0000000000000000000, 1.000000000000000000, 0.0000000000000000000 ) ) ;
#185 = AXIS2_PLACEMENT_3D ( 'NONE', #157, #89, #55 ) ;
#186 = FACE_OUTER_BOUND ( 'NONE', #213, .T. ) ;
#187 = PRODUCT_DEFINITION ( 'UNKNOWN', '', #167, #105 ) ;
#188 = CARTESIAN_POINT ( 'NONE',  ( 4.825155368735091655E-16, 0.2299999999999990941, 0.1381979423763398385 ) ) ;
#189 = CC_DESIGN_PERSON_AND_ORGANIZATION_ASSIGNMENT ( #57, #160, ( #187 ) ) ;
#190 =( NAMED_UNIT ( * ) SI_UNIT ( $, .STERADIAN. ) SOLID_ANGLE_UNIT ( ) );
#191 = AXIS2_PLACEMENT_3D ( 'NONE', #9, #124, #153 ) ;
#192 = LOCAL_TIME ( 7, 16, 30.00000000000000000, #125 ) ;
#193 = CARTESIAN_POINT ( 'NONE',  ( 1.256933281983528008E-14, 1.724723750061126259E-33, 3.600000000000000089 ) ) ;
#194 = DIRECTION ( 'NONE',  ( -4.186804226928789587E-31, -1.000000000000000000, -1.178480622266857147E-16 ) ) ;
#195 = VERTEX_POINT ( 'NONE', #120 ) ;
#196 = VERTEX_POINT ( 'NONE', #188 ) ;
#197 = ORIENTED_EDGE ( 'NONE', *, *, #168, .F. ) ;
#198 = APPROVAL_STATUS ( 'not_yet_approved' ) ;
#199 = APPROVAL_PERSON_ORGANIZATION ( #104, #48, #171 ) ;
#200 = EDGE_LOOP ( 'NONE', ( #81 ) ) ;
#201 = PERSON_AND_ORGANIZATION_ROLE ( 'design_supplier' ) ;
#202 = DIRECTION ( 'NONE',  ( 0.0000000000000000000, -1.000000000000000000, 0.0000000000000000000 ) ) ;
#203 = PERSON_AND_ORGANIZATION_ROLE ( 'creator' ) ;
#204 = MANIFOLD_SOLID_BREP ( 'Corps-Déplacer/Copier1[1]', #152 ) ;
#205 = PLANE ( 'NONE',  #217 ) ;
#206 = CIRCLE ( 'NONE', #67, 0.2299999999999995104 ) ;
#207 = PERSON_AND_ORGANIZATION ( #182, #38 ) ;
#208 = CC_DESIGN_APPROVAL ( #136, ( #79 ) ) ;
#209 = PLANE ( 'NONE',  #31 ) ;
#210 = ADVANCED_FACE ( 'NONE', ( #71, #141 ), #8, .T. ) ;
#211 = APPROVAL_PERSON_ORGANIZATION ( #146, #219, #59 ) ;
#212 = CARTESIAN_POINT ( 'NONE',  ( 1.256933281983528008E-14, 0.2299999999999990941, 3.600000000000000089 ) ) ;
#213 = EDGE_LOOP ( 'NONE', ( #177 ) ) ;
#214 = CARTESIAN_POINT ( 'NONE',  ( 1.043952920314096936E-13, 0.4999999999999954481, 29.90000000000000213 ) ) ;
#215 = ORIENTED_EDGE ( 'NONE', *, *, #86, .F. ) ;
#216 = APPROVAL_STATUS ( 'not_yet_approved' ) ;
#217 = AXIS2_PLACEMENT_3D ( 'NONE', #41, #4, #69 ) ;
#218 = ADVANCED_FACE ( 'NONE', ( #2 ), #35, .T. ) ;
#219 = APPROVAL ( #198, 'UNSPECIFIED' ) ;
#220 = DATE_AND_TIME ( #147, #126 ) ;
#221 = EDGE_LOOP ( 'NONE', ( #148 ) ) ;
#222 = ORIENTED_EDGE ( 'NONE', *, *, #165, .F. ) ;
#223 = CARTESIAN_POINT ( 'NONE',  ( 0.0000000000000000000, 0.0000000000000000000, 0.0000000000000000000 ) ) ;
ENDSEC;
END-ISO-10303-21;
