ISO-10303-21;
HEADER;
FILE_DESCRIPTION (( 'STEP AP203' ),
    '1' );
FILE_NAME ('952681.step',
    '2021-10-08T05:16:29',
    ( '' ),
    ( '' ),
    'SwSTEP 2.0',
    'SolidWorks 2019',
    '' );
FILE_SCHEMA (( 'CONFIG_CONTROL_DESIGN' ));
ENDSEC;

DATA;
#1 = FACE_BOUND ( 'NONE', #110, .T. ) ;
#2 = ADVANCED_FACE ( 'NONE', ( #175, #140 ), #154, .T. ) ;
#3 = PRODUCT ( '952681', '952681', '', ( #215 ) ) ;
#4 = CARTESIAN_POINT ( 'NONE',  ( 1.615268890115166236E-14, 0.4999999999999963363, 4.626313972081457671 ) ) ;
#5 = AXIS2_PLACEMENT_3D ( 'NONE', #143, #49, #127 ) ;
#6 = LOCAL_TIME ( 7, 16, 29.00000000000000000, #169 ) ;
#7 = CC_DESIGN_DATE_AND_TIME_ASSIGNMENT ( #184, #99, ( #118 ) ) ;
#8 = DIRECTION ( 'NONE',  ( 4.275831445896958607E-31, 1.000000000000000000, 1.224646799147352961E-16 ) ) ;
#9 = FACE_OUTER_BOUND ( 'NONE', #15, .T. ) ;
#10 = CIRCLE ( 'NONE', #180, 0.2249999999999992839 ) ;
#11 = CARTESIAN_POINT ( 'NONE',  ( 1.047444401652940007E-13, 2.999519565323652267E-33, 30.00000000000000000 ) ) ;
#12 = DATE_AND_TIME ( #185, #73 ) ;
#13 = PERSON_AND_ORGANIZATION ( #194, #95 ) ;
#14 = PERSON_AND_ORGANIZATION ( #194, #95 ) ;
#15 = EDGE_LOOP ( 'NONE', ( #84 ) ) ;
#16 = ORIENTED_EDGE ( 'NONE', *, *, #97, .T. ) ;
#17 = CARTESIAN_POINT ( 'NONE',  ( 4.720260686806070796E-16, -1.655644576108060179E-17, 0.1351936392812020937 ) ) ;
#18 = CC_DESIGN_APPROVAL ( #52, ( #22 ) ) ;
#19 = DIRECTION ( 'NONE',  ( 0.0000000000000000000, 1.000000000000000000, 0.0000000000000000000 ) ) ;
#20 = DIRECTION ( 'NONE',  ( 0.0000000000000000000, 1.000000000000000000, 0.0000000000000000000 ) ) ;
#21 = ADVANCED_FACE ( 'NONE', ( #123 ), #29, .T. ) ;
#22 = SECURITY_CLASSIFICATION ( '', '', #122 ) ;
#23 = CYLINDRICAL_SURFACE ( 'NONE', #191, 0.2249999999999995060 ) ;
#24 = DIRECTION ( 'NONE',  ( -3.491481338843133355E-15, 1.224646799147353207E-16, -1.000000000000000000 ) ) ;
#25 = DIRECTION ( 'NONE',  ( -3.491481338843133355E-15, 1.224646799147353207E-16, -1.000000000000000000 ) ) ;
#26 = PERSON_AND_ORGANIZATION ( #194, #95 ) ;
#27 = APPROVAL_STATUS ( 'not_yet_approved' ) ;
#28 = APPROVAL ( #135, 'UNSPECIFIED' ) ;
#29 = CONICAL_SURFACE ( 'NONE', #176, 0.2249999999999992839, 1.029744258676649871 ) ;
#30 = APPROVAL_ROLE ( '' ) ;
#31 = AXIS2_PLACEMENT_3D ( 'NONE', #190, #133, #20 ) ;
#32 = LOCAL_TIME ( 7, 16, 29.00000000000000000, #78 ) ;
#33 = EDGE_LOOP ( 'NONE', ( #222 ) ) ;
#34 = ORIENTED_EDGE ( 'NONE', *, *, #208, .F. ) ;
#35 = CARTESIAN_POINT ( 'NONE',  ( 1.615268890115166236E-14, -5.665600597760235247E-16, 4.626313972081457671 ) ) ;
#36 = CARTESIAN_POINT ( 'NONE',  ( 4.720260686806070796E-16, -1.655644576108060179E-17, 0.1351936392812020937 ) ) ;
#37 = PLANE ( 'NONE',  #212 ) ;
#38 = VERTEX_POINT ( 'NONE', #146 ) ;
#39 = CARTESIAN_POINT ( 'NONE',  ( 1.256933281983528008E-14, 0.2249999999999992839, 3.600000000000000089 ) ) ;
#40 = FACE_OUTER_BOUND ( 'NONE', #106, .T. ) ;
#41 = PERSON_AND_ORGANIZATION_ROLE ( 'design_owner' ) ;
#42 = CALENDAR_DATE ( 2021, 8, 10 ) ;
#43 = CALENDAR_DATE ( 2021, 8, 10 ) ;
#44 = ORIENTED_EDGE ( 'NONE', *, *, #89, .F. ) ;
#45 = CARTESIAN_POINT ( 'NONE',  ( 1.043952920314096936E-13, -3.661693929450586610E-15, 29.90000000000000213 ) ) ;
#46 = ORIENTED_EDGE ( 'NONE', *, *, #109, .F. ) ;
#47 = MANIFOLD_SOLID_BREP ( 'Corps-Déplacer/Copier1[1]', #81 ) ;
#48 = CARTESIAN_POINT ( 'NONE',  ( 1.615268890115166236E-14, -5.665600597760235247E-16, 4.626313972081457671 ) ) ;
#49 = DIRECTION ( 'NONE',  ( -3.491481338843133355E-15, 1.224646799147353207E-16, -1.000000000000000000 ) ) ;
#50 = MANIFOLD_SOLID_BREP ( 'Corps-Déplacer/Copier1[2]', #91 ) ;
#51 = CARTESIAN_POINT ( 'NONE',  ( 1.256933281983528008E-14, 0.2249999999999992839, 3.600000000000000089 ) ) ;
#52 = APPROVAL ( #74, 'UNSPECIFIED' ) ;
#53 = DIRECTION ( 'NONE',  ( 0.0000000000000000000, 1.000000000000000000, 0.0000000000000000000 ) ) ;
#54 = LOCAL_TIME ( 7, 16, 29.00000000000000000, #119 ) ;
#55 = CARTESIAN_POINT ( 'NONE',  ( 1.047444401652940007E-13, -3.673940397442059178E-15, 30.00000000000000000 ) ) ;
#56 = AXIS2_PLACEMENT_3D ( 'NONE', #11, #25, #210 ) ;
#57 = EDGE_CURVE ( 'NONE', #162, #162, #157, .T. ) ;
#58 = PERSON_AND_ORGANIZATION ( #194, #95 ) ;
#59 = CALENDAR_DATE ( 2021, 8, 10 ) ;
#60 = ADVANCED_BREP_SHAPE_REPRESENTATION ( '952681', ( #47, #50, #149 ), #216 ) ;
#61 = APPROVAL_PERSON_ORGANIZATION ( #58, #52, #170 ) ;
#62 = PERSON_AND_ORGANIZATION_ROLE ( 'classification_officer' ) ;
#63 = CC_DESIGN_PERSON_AND_ORGANIZATION_ASSIGNMENT ( #14, #41, ( #3 ) ) ;
#64 = EDGE_LOOP ( 'NONE', ( #44 ) ) ;
#65 = EDGE_LOOP ( 'NONE', ( #16 ) ) ;
#66 = ORIENTED_EDGE ( 'NONE', *, *, #208, .T. ) ;
#67 = DIRECTION ( 'NONE',  ( -3.491481338843133355E-15, 1.224646799147353207E-16, -1.000000000000000000 ) ) ;
#68 = ORIENTED_EDGE ( 'NONE', *, *, #57, .F. ) ;
#69 =( NAMED_UNIT ( * ) PLANE_ANGLE_UNIT ( ) SI_UNIT ( $, .RADIAN. ) );
#70 = DIRECTION ( 'NONE',  ( -4.275831445896958607E-31, -1.000000000000000000, -1.224646799147353207E-16 ) ) ;
#71 = FACE_OUTER_BOUND ( 'NONE', #206, .T. ) ;
#72 = CC_DESIGN_DATE_AND_TIME_ASSIGNMENT ( #103, #219, ( #22 ) ) ;
#73 = LOCAL_TIME ( 7, 16, 29.00000000000000000, #120 ) ;
#74 = APPROVAL_STATUS ( 'not_yet_approved' ) ;
#75 = DESIGN_CONTEXT ( 'detailed design', #155, 'design' ) ;
#76 = DATE_AND_TIME ( #43, #77 ) ;
#77 = LOCAL_TIME ( 7, 16, 29.00000000000000000, #98 ) ;
#78 = COORDINATED_UNIVERSAL_TIME_OFFSET ( 1, 0, .AHEAD. ) ;
#79 = PERSON_AND_ORGANIZATION ( #194, #95 ) ;
#80 = ADVANCED_FACE ( 'NONE', ( #1, #87 ), #107, .T. ) ;
#81 = CLOSED_SHELL ( 'NONE', ( #218, #80, #2, #179, #172 ) ) ;
#82 = CC_DESIGN_SECURITY_CLASSIFICATION ( #22, ( #186 ) ) ;
#83 = EDGE_LOOP ( 'NONE', ( #171 ) ) ;
#84 = ORIENTED_EDGE ( 'NONE', *, *, #100, .T. ) ;
#85 = EDGE_LOOP ( 'NONE', ( #173 ) ) ;
#86 = DIRECTION ( 'NONE',  ( 0.0000000000000000000, 1.000000000000000000, 0.0000000000000000000 ) ) ;
#87 = FACE_OUTER_BOUND ( 'NONE', #65, .T. ) ;
#88 = FACE_OUTER_BOUND ( 'NONE', #159, .T. ) ;
#89 = EDGE_CURVE ( 'NONE', #38, #38, #10, .T. ) ;
#90 = DIRECTION ( 'NONE',  ( 3.491481338843133355E-15, -1.224646799147353207E-16, 1.000000000000000000 ) ) ;
#91 = CLOSED_SHELL ( 'NONE', ( #21, #134, #113 ) ) ;
#92 = DIRECTION ( 'NONE',  ( -3.491481338843133355E-15, 1.224646799147353207E-16, -1.000000000000000000 ) ) ;
#93 = CC_DESIGN_PERSON_AND_ORGANIZATION_ASSIGNMENT ( #137, #62, ( #22 ) ) ;
#94 = DIRECTION ( 'NONE',  ( -4.275831445896958607E-31, -1.000000000000000000, -1.224646799147353207E-16 ) ) ;
#95 = ORGANIZATION ( 'UNSPECIFIED', 'UNSPECIFIED', '' ) ;
#96 = UNCERTAINTY_MEASURE_WITH_UNIT (LENGTH_MEASURE( 1.000000000000000082E-05 ), #147, 'distance_accuracy_value', 'NONE');
#97 = EDGE_CURVE ( 'NONE', #164, #164, #168, .T. ) ;
#98 = COORDINATED_UNIVERSAL_TIME_OFFSET ( 1, 0, .AHEAD. ) ;
#99 = DATE_TIME_ROLE ( 'creation_date' ) ;
#100 = EDGE_CURVE ( 'NONE', #111, #111, #117, .T. ) ;
#101 = CONICAL_SURFACE ( 'NONE', #121, 0.3999999999999989675, 0.7853981633974694843 ) ;
#102 = DATE_AND_TIME ( #42, #6 ) ;
#103 = DATE_AND_TIME ( #153, #32 ) ;
#104 = AXIS2_PLACEMENT_3D ( 'NONE', #35, #177, #19 ) ;
#105 = ORIENTED_EDGE ( 'NONE', *, *, #100, .F. ) ;
#106 = EDGE_LOOP ( 'NONE', ( #68 ) ) ;
#107 = CONICAL_SURFACE ( 'NONE', #151, 0.4999999999999968914, 0.2617993877991428020 ) ;
#108 = APPROVAL_PERSON_ORGANIZATION ( #26, #28, #30 ) ;
#109 = EDGE_CURVE ( 'NONE', #114, #114, #207, .T. ) ;
#110 = EDGE_LOOP ( 'NONE', ( #105 ) ) ;
#111 = VERTEX_POINT ( 'NONE', #51 ) ;
#112 = CARTESIAN_POINT ( 'NONE',  ( 1.043952920314096936E-13, 0.4999999999999954481, 29.90000000000000213 ) ) ;
#113 = ADVANCED_FACE ( 'NONE', ( #88 ), #182, .T. ) ;
#114 = VERTEX_POINT ( 'NONE', #39 ) ;
#115 = CARTESIAN_POINT ( 'NONE',  ( 0.0000000000000000000, 0.0000000000000000000, 0.0000000000000000000 ) ) ;
#116 = APPROVAL_DATE_TIME ( #102, #201 ) ;
#117 = CIRCLE ( 'NONE', #5, 0.2249999999999997280 ) ;
#118 = PRODUCT_DEFINITION ( 'UNKNOWN', '', #186, #75 ) ;
#119 = COORDINATED_UNIVERSAL_TIME_OFFSET ( 1, 0, .AHEAD. ) ;
#120 = COORDINATED_UNIVERSAL_TIME_OFFSET ( 1, 0, .AHEAD. ) ;
#121 = AXIS2_PLACEMENT_3D ( 'NONE', #55, #130, #53 ) ;
#122 = SECURITY_CLASSIFICATION_LEVEL ( 'unclassified' ) ;
#123 = FACE_OUTER_BOUND ( 'NONE', #156, .T. ) ;
#124 = DIRECTION ( 'NONE',  ( 4.275831445896958607E-31, 1.000000000000000000, 1.224646799147353207E-16 ) ) ;
#125 = DIRECTION ( 'NONE',  ( -3.491481338843133355E-15, 1.224646799147353207E-16, -1.000000000000000000 ) ) ;
#126 = AXIS2_PLACEMENT_3D ( 'NONE', #45, #158, #86 ) ;
#127 = DIRECTION ( 'NONE',  ( 0.0000000000000000000, 1.000000000000000000, 0.0000000000000000000 ) ) ;
#128 = CC_DESIGN_PERSON_AND_ORGANIZATION_ASSIGNMENT ( #183, #200, ( #118 ) ) ;
#129 = CARTESIAN_POINT ( 'NONE',  ( 1.047444401652940007E-13, -3.673940397442059178E-15, 30.00000000000000000 ) ) ;
#130 = DIRECTION ( 'NONE',  ( -3.491481338843133355E-15, 1.224646799147353207E-16, -1.000000000000000000 ) ) ;
#131 = AXIS2_PLACEMENT_3D ( 'NONE', #129, #24, #211 ) ;
#132 = DIRECTION ( 'NONE',  ( 0.0000000000000000000, 0.0000000000000000000, 1.000000000000000000 ) ) ;
#133 = DIRECTION ( 'NONE',  ( -3.491481338843133355E-15, 1.224646799147353207E-16, -1.000000000000000000 ) ) ;
#134 = ADVANCED_FACE ( 'NONE', ( #145, #209 ), #23, .T. ) ;
#135 = APPROVAL_STATUS ( 'not_yet_approved' ) ;
#136 = CC_DESIGN_PERSON_AND_ORGANIZATION_ASSIGNMENT ( #79, #166, ( #186 ) ) ;
#137 = PERSON_AND_ORGANIZATION ( #194, #95 ) ;
#138 = DIRECTION ( 'NONE',  ( 3.491481338843133355E-15, -1.224646799147353207E-16, 1.000000000000000000 ) ) ;
#139 = DIRECTION ( 'NONE',  ( -4.279844320860538034E-31, -1.000000000000000000, -1.204669080539453288E-16 ) ) ;
#140 = FACE_OUTER_BOUND ( 'NONE', #83, .T. ) ;
#141 = PRODUCT_DEFINITION_SHAPE ( 'NONE', 'NONE',  #118 ) ;
#142 = DIRECTION ( 'NONE',  ( 3.491481338843133355E-15, -1.224646799147353207E-16, 1.000000000000000000 ) ) ;
#143 = CARTESIAN_POINT ( 'NONE',  ( 1.256933281983528008E-14, -4.408728476930471151E-16, 3.600000000000000089 ) ) ;
#144 = AXIS2_PLACEMENT_3D ( 'NONE', #203, #67, #124 ) ;
#145 = FACE_OUTER_BOUND ( 'NONE', #64, .T. ) ;
#146 = CARTESIAN_POINT ( 'NONE',  ( 4.720260686806071782E-16, 0.2249999999999992562, 0.1351936392812021215 ) ) ;
#147 =( LENGTH_UNIT ( ) NAMED_UNIT ( * ) SI_UNIT ( .MILLI., .METRE. ) );
#148 = CARTESIAN_POINT ( 'NONE',  ( 1.047444401652940007E-13, 0.3999999999999953038, 30.00000000000000000 ) ) ;
#149 = AXIS2_PLACEMENT_3D ( 'NONE', #115, #132, #197 ) ;
#150 =( NAMED_UNIT ( * ) SI_UNIT ( $, .STERADIAN. ) SOLID_ANGLE_UNIT ( ) );
#151 = AXIS2_PLACEMENT_3D ( 'NONE', #48, #142, #205 ) ;
#152 = APPLICATION_PROTOCOL_DEFINITION ( 'international standard', 'config_control_design', 1994, #155 ) ;
#153 = CALENDAR_DATE ( 2021, 8, 10 ) ;
#154 = CYLINDRICAL_SURFACE ( 'NONE', #144, 0.4999999999999980571 ) ;
#155 = APPLICATION_CONTEXT ( 'configuration controlled 3d designs of mechanical parts and assemblies' ) ;
#156 = EDGE_LOOP ( 'NONE', ( #221 ) ) ;
#157 = CIRCLE ( 'NONE', #126, 0.4999999999999991673 ) ;
#158 = DIRECTION ( 'NONE',  ( -3.491481338843133355E-15, 1.224646799147353207E-16, -1.000000000000000000 ) ) ;
#159 = EDGE_LOOP ( 'NONE', ( #46 ) ) ;
#160 = CARTESIAN_POINT ( 'NONE',  ( 0.0000000000000000000, 0.0000000000000000000, 0.0000000000000000000 ) ) ;
#161 = CC_DESIGN_APPROVAL ( #28, ( #186 ) ) ;
#162 = VERTEX_POINT ( 'NONE', #112 ) ;
#163 = PLANE ( 'NONE',  #56 ) ;
#164 = VERTEX_POINT ( 'NONE', #4 ) ;
#165 = PERSON_AND_ORGANIZATION_ROLE ( 'creator' ) ;
#166 = PERSON_AND_ORGANIZATION_ROLE ( 'design_supplier' ) ;
#167 = SHAPE_DEFINITION_REPRESENTATION ( #141, #60 ) ;
#168 = CIRCLE ( 'NONE', #104, 0.4999999999999968914 ) ;
#169 = COORDINATED_UNIVERSAL_TIME_OFFSET ( 1, 0, .AHEAD. ) ;
#170 = APPROVAL_ROLE ( '' ) ;
#171 = ORIENTED_EDGE ( 'NONE', *, *, #57, .T. ) ;
#172 = ADVANCED_FACE ( 'NONE', ( #71 ), #163, .F. ) ;
#173 = ORIENTED_EDGE ( 'NONE', *, *, #109, .T. ) ;
#174 = CC_DESIGN_PERSON_AND_ORGANIZATION_ASSIGNMENT ( #13, #165, ( #186 ) ) ;
#175 = FACE_OUTER_BOUND ( 'NONE', #33, .T. ) ;
#176 = AXIS2_PLACEMENT_3D ( 'NONE', #17, #138, #139 ) ;
#177 = DIRECTION ( 'NONE',  ( -3.491481338843133355E-15, 1.224646799147353207E-16, -1.000000000000000000 ) ) ;
#178 = VERTEX_POINT ( 'NONE', #148 ) ;
#179 = ADVANCED_FACE ( 'NONE', ( #40, #193 ), #101, .T. ) ;
#180 = AXIS2_PLACEMENT_3D ( 'NONE', #36, #125, #189 ) ;
#181 = DIRECTION ( 'NONE',  ( 3.491481338843133355E-15, -1.224646799147353207E-16, 1.000000000000000000 ) ) ;
#182 = PLANE ( 'NONE',  #202 ) ;
#183 = PERSON_AND_ORGANIZATION ( #194, #95 ) ;
#184 = DATE_AND_TIME ( #59, #54 ) ;
#185 = CALENDAR_DATE ( 2021, 8, 10 ) ;
#186 = PRODUCT_DEFINITION_FORMATION_WITH_SPECIFIED_SOURCE ( 'ANY', '', #3, .NOT_KNOWN. ) ;
#187 = PRODUCT_RELATED_PRODUCT_CATEGORY ( 'detail', '', ( #3 ) ) ;
#188 = EDGE_LOOP ( 'NONE', ( #66 ) ) ;
#189 = DIRECTION ( 'NONE',  ( 4.279844320860538034E-31, 1.000000000000000000, 1.204669080539453288E-16 ) ) ;
#190 = CARTESIAN_POINT ( 'NONE',  ( 1.256933281983528008E-14, -4.408728476930471151E-16, 3.600000000000000089 ) ) ;
#191 = AXIS2_PLACEMENT_3D ( 'NONE', #160, #92, #8 ) ;
#192 = CC_DESIGN_APPROVAL ( #201, ( #118 ) ) ;
#193 = FACE_BOUND ( 'NONE', #188, .T. ) ;
#194 = PERSON ( 'UNSPECIFIED', 'UNSPECIFIED', 'UNSPECIFIED', ('UNSPECIFIED'), ('UNSPECIFIED'), ('UNSPECIFIED') ) ;
#195 = CARTESIAN_POINT ( 'NONE',  ( 1.256933281983528008E-14, 1.687229755494581256E-33, 3.600000000000000089 ) ) ;
#196 = CARTESIAN_POINT ( 'NONE',  ( 1.256933281983528008E-14, 1.687229755494581256E-33, 3.600000000000000089 ) ) ;
#197 = DIRECTION ( 'NONE',  ( 1.000000000000000000, 0.0000000000000000000, 0.0000000000000000000 ) ) ;
#198 = PERSON_AND_ORGANIZATION ( #194, #95 ) ;
#199 = APPROVAL_PERSON_ORGANIZATION ( #198, #201, #220 ) ;
#200 = PERSON_AND_ORGANIZATION_ROLE ( 'creator' ) ;
#201 = APPROVAL ( #27, 'UNSPECIFIED' ) ;
#202 = AXIS2_PLACEMENT_3D ( 'NONE', #195, #181, #70 ) ;
#203 = CARTESIAN_POINT ( 'NONE',  ( 0.0000000000000000000, 0.0000000000000000000, 0.0000000000000000000 ) ) ;
#204 = APPLICATION_CONTEXT ( 'configuration controlled 3d designs of mechanical parts and assemblies' ) ;
#205 = DIRECTION ( 'NONE',  ( 0.0000000000000000000, -1.000000000000000000, 0.0000000000000000000 ) ) ;
#206 = EDGE_LOOP ( 'NONE', ( #34 ) ) ;
#207 = CIRCLE ( 'NONE', #31, 0.2249999999999997280 ) ;
#208 = EDGE_CURVE ( 'NONE', #178, #178, #223, .T. ) ;
#209 = FACE_OUTER_BOUND ( 'NONE', #85, .T. ) ;
#210 = DIRECTION ( 'NONE',  ( 4.275831445896958607E-31, 1.000000000000000000, 1.224646799147353207E-16 ) ) ;
#211 = DIRECTION ( 'NONE',  ( 0.0000000000000000000, 1.000000000000000000, 0.0000000000000000000 ) ) ;
#212 = AXIS2_PLACEMENT_3D ( 'NONE', #196, #90, #94 ) ;
#213 = APPLICATION_PROTOCOL_DEFINITION ( 'international standard', 'config_control_design', 1994, #204 ) ;
#214 = APPROVAL_DATE_TIME ( #12, #52 ) ;
#215 = MECHANICAL_CONTEXT ( 'NONE', #204, 'mechanical' ) ;
#216 =( GEOMETRIC_REPRESENTATION_CONTEXT ( 3 ) GLOBAL_UNCERTAINTY_ASSIGNED_CONTEXT ( ( #96 ) ) GLOBAL_UNIT_ASSIGNED_CONTEXT ( ( #147, #69, #150 ) ) REPRESENTATION_CONTEXT ( 'NONE', 'WORKASPACE' ) );
#217 = APPROVAL_DATE_TIME ( #76, #28 ) ;
#218 = ADVANCED_FACE ( 'NONE', ( #9 ), #37, .F. ) ;
#219 = DATE_TIME_ROLE ( 'classification_date' ) ;
#220 = APPROVAL_ROLE ( '' ) ;
#221 = ORIENTED_EDGE ( 'NONE', *, *, #89, .T. ) ;
#222 = ORIENTED_EDGE ( 'NONE', *, *, #97, .F. ) ;
#223 = CIRCLE ( 'NONE', #131, 0.3999999999999989675 ) ;
ENDSEC;
END-ISO-10303-21;
