ISO-10303-21;
HEADER;
FILE_DESCRIPTION (( 'STEP AP203' ),
    '1' );
FILE_NAME ('952680.step',
    '2021-10-08T05:16:28',
    ( '' ),
    ( '' ),
    'SwSTEP 2.0',
    'SolidWorks 2019',
    '' );
FILE_SCHEMA (( 'CONFIG_CONTROL_DESIGN' ));
ENDSEC;

DATA;
#1 = EDGE_CURVE ( 'NONE', #158, #158, #152, .T. ) ;
#2 = ADVANCED_FACE ( 'NONE', ( #41, #148 ), #81, .T. ) ;
#3 = UNCERTAINTY_MEASURE_WITH_UNIT (LENGTH_MEASURE( 1.000000000000000082E-05 ), #221, 'distance_accuracy_value', 'NONE');
#4 = PLANE ( 'NONE',  #34 ) ;
#5 = AXIS2_PLACEMENT_3D ( 'NONE', #132, #38, #22 ) ;
#6 = FACE_OUTER_BOUND ( 'NONE', #186, .T. ) ;
#7 = FACE_OUTER_BOUND ( 'NONE', #169, .T. ) ;
#8 = AXIS2_PLACEMENT_3D ( 'NONE', #159, #131, #71 ) ;
#9 = CC_DESIGN_SECURITY_CLASSIFICATION ( #105, ( #156 ) ) ;
#10 = DIRECTION ( 'NONE',  ( -4.275831445896958607E-31, -1.000000000000000000, -1.224646799147353207E-16 ) ) ;
#11 = APPLICATION_PROTOCOL_DEFINITION ( 'international standard', 'config_control_design', 1994, #46 ) ;
#12 = DATE_AND_TIME ( #13, #128 ) ;
#13 = CALENDAR_DATE ( 2021, 8, 10 ) ;
#14 = APPROVAL_STATUS ( 'not_yet_approved' ) ;
#15 = CIRCLE ( 'NONE', #5, 0.4999999999999991673 ) ;
#16 = EDGE_LOOP ( 'NONE', ( #205 ) ) ;
#17 = CC_DESIGN_PERSON_AND_ORGANIZATION_ASSIGNMENT ( #76, #42, ( #102 ) ) ;
#18 = APPROVAL_PERSON_ORGANIZATION ( #70, #113, #209 ) ;
#19 = EDGE_LOOP ( 'NONE', ( #119 ) ) ;
#20 = DIRECTION ( 'NONE',  ( -3.491481338843133355E-15, 1.224646799147353207E-16, -1.000000000000000000 ) ) ;
#21 = CARTESIAN_POINT ( 'NONE',  ( 1.047444401652940007E-13, 2.999519565323652267E-33, 30.00000000000000000 ) ) ;
#22 = DIRECTION ( 'NONE',  ( 0.0000000000000000000, 1.000000000000000000, 0.0000000000000000000 ) ) ;
#23 = APPROVAL ( #14, 'UNSPECIFIED' ) ;
#24 = CARTESIAN_POINT ( 'NONE',  ( 1.063147068775385095E-14, -3.729017939503191252E-16, 3.044974226119300909 ) ) ;
#25 = CYLINDRICAL_SURFACE ( 'NONE', #62, 0.2199999999999998623 ) ;
#26 = PERSON_AND_ORGANIZATION ( #196, #77 ) ;
#27 = PERSON_AND_ORGANIZATION ( #196, #77 ) ;
#28 = MECHANICAL_CONTEXT ( 'NONE', #46, 'mechanical' ) ;
#29 = COORDINATED_UNIVERSAL_TIME_OFFSET ( 1, 0, .AHEAD. ) ;
#30 = ORIENTED_EDGE ( 'NONE', *, *, #171, .T. ) ;
#31 =( NAMED_UNIT ( * ) PLANE_ANGLE_UNIT ( ) SI_UNIT ( $, .RADIAN. ) );
#32 = EDGE_LOOP ( 'NONE', ( #118 ) ) ;
#33 = EDGE_LOOP ( 'NONE', ( #157 ) ) ;
#34 = AXIS2_PLACEMENT_3D ( 'NONE', #177, #69, #59 ) ;
#35 = DIRECTION ( 'NONE',  ( -3.491481338843133355E-15, 1.224646799147353207E-16, -1.000000000000000000 ) ) ;
#36 = MANIFOLD_SOLID_BREP ( 'Corps-Déplacer/Copier1[2]', #195 ) ;
#37 = PLANE ( 'NONE',  #127 ) ;
#38 = DIRECTION ( 'NONE',  ( -3.491481338843133355E-15, 1.224646799147353207E-16, -1.000000000000000000 ) ) ;
#39 = CONICAL_SURFACE ( 'NONE', #182, 0.3999999999999989675, 0.7853981633974694843 ) ;
#40 = CARTESIAN_POINT ( 'NONE',  ( 6.982962677686266711E-15, 1.649735760928039332E-33, 2.000000000000000000 ) ) ;
#41 = FACE_BOUND ( 'NONE', #33, .T. ) ;
#42 = PERSON_AND_ORGANIZATION_ROLE ( 'creator' ) ;
#43 = APPROVAL_DATE_TIME ( #12, #83 ) ;
#44 = VERTEX_POINT ( 'NONE', #164 ) ;
#45 = EDGE_LOOP ( 'NONE', ( #96 ) ) ;
#46 = APPLICATION_CONTEXT ( 'configuration controlled 3d designs of mechanical parts and assemblies' ) ;
#47 = ORIENTED_EDGE ( 'NONE', *, *, #147, .T. ) ;
#48 = ORIENTED_EDGE ( 'NONE', *, *, #1, .T. ) ;
#49 = EDGE_LOOP ( 'NONE', ( #48 ) ) ;
#50 = APPROVAL_DATE_TIME ( #68, #113 ) ;
#51 = DIRECTION ( 'NONE',  ( -3.491481338843133355E-15, 1.224646799147353207E-16, -1.000000000000000000 ) ) ;
#52 = SHAPE_DEFINITION_REPRESENTATION ( #197, #125 ) ;
#53 = VERTEX_POINT ( 'NONE', #72 ) ;
#54 = CARTESIAN_POINT ( 'NONE',  ( 1.047444401652940007E-13, -3.673940397442059178E-15, 30.00000000000000000 ) ) ;
#55 = AXIS2_PLACEMENT_3D ( 'NONE', #74, #215, #145 ) ;
#56 = ADVANCED_FACE ( 'NONE', ( #124, #7 ), #179, .T. ) ;
#57 = CARTESIAN_POINT ( 'NONE',  ( 1.063147068775385095E-14, 0.4999999999999963363, 3.044974226119300909 ) ) ;
#58 =( GEOMETRIC_REPRESENTATION_CONTEXT ( 3 ) GLOBAL_UNCERTAINTY_ASSIGNED_CONTEXT ( ( #3 ) ) GLOBAL_UNIT_ASSIGNED_CONTEXT ( ( #221, #31, #137 ) ) REPRESENTATION_CONTEXT ( 'NONE', 'WORKASPACE' ) );
#59 = DIRECTION ( 'NONE',  ( -4.275831445896958607E-31, -1.000000000000000000, -1.224646799147353207E-16 ) ) ;
#60 = CC_DESIGN_PERSON_AND_ORGANIZATION_ASSIGNMENT ( #95, #185, ( #79 ) ) ;
#61 = VERTEX_POINT ( 'NONE', #206 ) ;
#62 = AXIS2_PLACEMENT_3D ( 'NONE', #149, #51, #110 ) ;
#63 = COORDINATED_UNIVERSAL_TIME_OFFSET ( 1, 0, .AHEAD. ) ;
#64 = PERSON_AND_ORGANIZATION ( #196, #77 ) ;
#65 = LOCAL_TIME ( 7, 16, 28.00000000000000000, #63 ) ;
#66 = DIRECTION ( 'NONE',  ( -3.491481338843133355E-15, 1.224646799147353207E-16, -1.000000000000000000 ) ) ;
#67 = CC_DESIGN_PERSON_AND_ORGANIZATION_ASSIGNMENT ( #27, #223, ( #105 ) ) ;
#68 = DATE_AND_TIME ( #100, #217 ) ;
#69 = DIRECTION ( 'NONE',  ( 3.491481338843133355E-15, -1.224646799147353207E-16, 1.000000000000000000 ) ) ;
#70 = PERSON_AND_ORGANIZATION ( #196, #77 ) ;
#71 = DIRECTION ( 'NONE',  ( 0.0000000000000000000, -1.000000000000000000, 0.0000000000000000000 ) ) ;
#72 = CARTESIAN_POINT ( 'NONE',  ( 6.982962677686265133E-15, 0.2199999999999996958, 1.999999999999999556 ) ) ;
#73 = EDGE_CURVE ( 'NONE', #53, #53, #191, .T. ) ;
#74 = CARTESIAN_POINT ( 'NONE',  ( 4.615366004877058812E-16, -1.618852474416773836E-17, 0.1321893361860645988 ) ) ;
#75 = DIRECTION ( 'NONE',  ( 1.000000000000000000, 0.0000000000000000000, 0.0000000000000000000 ) ) ;
#76 = PERSON_AND_ORGANIZATION ( #196, #77 ) ;
#77 = ORGANIZATION ( 'UNSPECIFIED', 'UNSPECIFIED', '' ) ;
#78 = APPROVAL_DATE_TIME ( #154, #23 ) ;
#79 = PRODUCT ( '952680', '952680', '', ( #28 ) ) ;
#80 = EDGE_CURVE ( 'NONE', #219, #219, #93, .T. ) ;
#81 = CONICAL_SURFACE ( 'NONE', #8, 0.4999999999999966693, 0.2617993877991427465 ) ;
#82 = LOCAL_TIME ( 7, 16, 28.00000000000000000, #29 ) ;
#83 = APPROVAL ( #165, 'UNSPECIFIED' ) ;
#84 = EDGE_LOOP ( 'NONE', ( #47 ) ) ;
#85 = DIRECTION ( 'NONE',  ( 0.0000000000000000000, 1.000000000000000000, 0.0000000000000000000 ) ) ;
#86 = CARTESIAN_POINT ( 'NONE',  ( 1.047444401652940007E-13, -3.673940397442059178E-15, 30.00000000000000000 ) ) ;
#87 = DIRECTION ( 'NONE',  ( 0.0000000000000000000, 1.000000000000000000, 0.0000000000000000000 ) ) ;
#88 = APPLICATION_CONTEXT ( 'configuration controlled 3d designs of mechanical parts and assemblies' ) ;
#89 = ADVANCED_FACE ( 'NONE', ( #6 ), #4, .T. ) ;
#90 = DIRECTION ( 'NONE',  ( 3.491481338843133355E-15, -1.224646799147353207E-16, 1.000000000000000000 ) ) ;
#91 = PRODUCT_RELATED_PRODUCT_CATEGORY ( 'detail', '', ( #79 ) ) ;
#92 = FACE_OUTER_BOUND ( 'NONE', #32, .T. ) ;
#93 = CIRCLE ( 'NONE', #216, 0.4999999999999966693 ) ;
#94 = CALENDAR_DATE ( 2021, 8, 10 ) ;
#95 = PERSON_AND_ORGANIZATION ( #196, #77 ) ;
#96 = ORIENTED_EDGE ( 'NONE', *, *, #80, .T. ) ;
#97 = ADVANCED_FACE ( 'NONE', ( #200 ), #37, .F. ) ;
#98 = DIRECTION ( 'NONE',  ( 0.0000000000000000000, 0.0000000000000000000, 1.000000000000000000 ) ) ;
#99 = ADVANCED_FACE ( 'NONE', ( #146 ), #178, .T. ) ;
#100 = CALENDAR_DATE ( 2021, 8, 10 ) ;
#101 = ORIENTED_EDGE ( 'NONE', *, *, #1, .F. ) ;
#102 = PRODUCT_DEFINITION ( 'UNKNOWN', '', #156, #140 ) ;
#103 = FACE_OUTER_BOUND ( 'NONE', #190, .T. ) ;
#104 = FACE_OUTER_BOUND ( 'NONE', #173, .T. ) ;
#105 = SECURITY_CLASSIFICATION ( '', '', #151 ) ;
#106 = FACE_OUTER_BOUND ( 'NONE', #84, .T. ) ;
#107 = EDGE_CURVE ( 'NONE', #44, #44, #161, .T. ) ;
#108 = AXIS2_PLACEMENT_3D ( 'NONE', #194, #174, #220 ) ;
#109 = CC_DESIGN_APPROVAL ( #23, ( #156 ) ) ;
#110 = DIRECTION ( 'NONE',  ( 4.275831445896958607E-31, 1.000000000000000000, 1.224646799147353207E-16 ) ) ;
#111 = COORDINATED_UNIVERSAL_TIME_OFFSET ( 1, 0, .AHEAD. ) ;
#112 = AXIS2_PLACEMENT_3D ( 'NONE', #54, #141, #126 ) ;
#113 = APPROVAL ( #187, 'UNSPECIFIED' ) ;
#114 = PERSON_AND_ORGANIZATION_ROLE ( 'creator' ) ;
#115 = DATE_TIME_ROLE ( 'creation_date' ) ;
#116 = APPLICATION_PROTOCOL_DEFINITION ( 'international standard', 'config_control_design', 1994, #88 ) ;
#117 = VERTEX_POINT ( 'NONE', #150 ) ;
#118 = ORIENTED_EDGE ( 'NONE', *, *, #171, .F. ) ;
#119 = ORIENTED_EDGE ( 'NONE', *, *, #80, .F. ) ;
#120 = ADVANCED_FACE ( 'NONE', ( #103, #106 ), #25, .T. ) ;
#121 = DIRECTION ( 'NONE',  ( -3.491481338843133355E-15, 1.224646799147353207E-16, -1.000000000000000000 ) ) ;
#122 = CC_DESIGN_APPROVAL ( #113, ( #105 ) ) ;
#123 = CARTESIAN_POINT ( 'NONE',  ( 0.0000000000000000000, 0.0000000000000000000, 0.0000000000000000000 ) ) ;
#124 = FACE_OUTER_BOUND ( 'NONE', #19, .T. ) ;
#125 = ADVANCED_BREP_SHAPE_REPRESENTATION ( '952680', ( #189, #36, #207 ), #58 ) ;
#126 = DIRECTION ( 'NONE',  ( 0.0000000000000000000, 1.000000000000000000, 0.0000000000000000000 ) ) ;
#127 = AXIS2_PLACEMENT_3D ( 'NONE', #40, #90, #10 ) ;
#128 = LOCAL_TIME ( 7, 16, 28.00000000000000000, #167 ) ;
#129 = ADVANCED_FACE ( 'NONE', ( #104 ), #192, .F. ) ;
#130 = CC_DESIGN_PERSON_AND_ORGANIZATION_ASSIGNMENT ( #26, #183, ( #156 ) ) ;
#131 = DIRECTION ( 'NONE',  ( 3.491481338843133355E-15, -1.224646799147353207E-16, 1.000000000000000000 ) ) ;
#132 = CARTESIAN_POINT ( 'NONE',  ( 1.043952920314096936E-13, -3.661693929450586610E-15, 29.90000000000000213 ) ) ;
#133 = CALENDAR_DATE ( 2021, 8, 10 ) ;
#134 = AXIS2_PLACEMENT_3D ( 'NONE', #199, #35, #87 ) ;
#135 = DATE_AND_TIME ( #94, #65 ) ;
#136 = PERSON_AND_ORGANIZATION ( #196, #77 ) ;
#137 =( NAMED_UNIT ( * ) SI_UNIT ( $, .STERADIAN. ) SOLID_ANGLE_UNIT ( ) );
#138 = EDGE_LOOP ( 'NONE', ( #188 ) ) ;
#139 = APPROVAL_PERSON_ORGANIZATION ( #202, #23, #184 ) ;
#140 = DESIGN_CONTEXT ( 'detailed design', #88, 'design' ) ;
#141 = DIRECTION ( 'NONE',  ( -3.491481338843133355E-15, 1.224646799147353207E-16, -1.000000000000000000 ) ) ;
#142 = AXIS2_PLACEMENT_3D ( 'NONE', #21, #211, #214 ) ;
#143 = AXIS2_PLACEMENT_3D ( 'NONE', #123, #66, #193 ) ;
#144 = LOCAL_TIME ( 7, 16, 28.00000000000000000, #111 ) ;
#145 = DIRECTION ( 'NONE',  ( -4.377113509970994556E-31, -1.000000000000000000, -1.232047923278983432E-16 ) ) ;
#146 = FACE_OUTER_BOUND ( 'NONE', #49, .T. ) ;
#147 = EDGE_CURVE ( 'NONE', #117, #117, #212, .T. ) ;
#148 = FACE_OUTER_BOUND ( 'NONE', #45, .T. ) ;
#149 = CARTESIAN_POINT ( 'NONE',  ( 0.0000000000000000000, 0.0000000000000000000, 0.0000000000000000000 ) ) ;
#150 = CARTESIAN_POINT ( 'NONE',  ( 6.982962677686265133E-15, 0.2199999999999996958, 1.999999999999999556 ) ) ;
#151 = SECURITY_CLASSIFICATION_LEVEL ( 'unclassified' ) ;
#152 = CIRCLE ( 'NONE', #198, 0.2199999999999997791 ) ;
#153 = CC_DESIGN_APPROVAL ( #83, ( #102 ) ) ;
#154 = DATE_AND_TIME ( #181, #144 ) ;
#155 = ORIENTED_EDGE ( 'NONE', *, *, #147, .F. ) ;
#156 = PRODUCT_DEFINITION_FORMATION_WITH_SPECIFIED_SOURCE ( 'ANY', '', #79, .NOT_KNOWN. ) ;
#157 = ORIENTED_EDGE ( 'NONE', *, *, #73, .F. ) ;
#158 = VERTEX_POINT ( 'NONE', #160 ) ;
#159 = CARTESIAN_POINT ( 'NONE',  ( 1.063147068775385095E-14, -3.729017939503191252E-16, 3.044974226119300909 ) ) ;
#160 = CARTESIAN_POINT ( 'NONE',  ( 4.615366004877059798E-16, 0.2199999999999997513, 0.1321893361860646265 ) ) ;
#161 = CIRCLE ( 'NONE', #112, 0.3999999999999989675 ) ;
#162 = DIRECTION ( 'NONE',  ( -3.491481338843133355E-15, 1.224646799147353207E-16, -1.000000000000000000 ) ) ;
#163 = FACE_BOUND ( 'NONE', #16, .T. ) ;
#164 = CARTESIAN_POINT ( 'NONE',  ( 1.047444401652940007E-13, 0.3999999999999953038, 30.00000000000000000 ) ) ;
#165 = APPROVAL_STATUS ( 'not_yet_approved' ) ;
#166 = CC_DESIGN_PERSON_AND_ORGANIZATION_ASSIGNMENT ( #64, #114, ( #156 ) ) ;
#167 = COORDINATED_UNIVERSAL_TIME_OFFSET ( 1, 0, .AHEAD. ) ;
#168 = APPROVAL_PERSON_ORGANIZATION ( #136, #83, #222 ) ;
#169 = EDGE_LOOP ( 'NONE', ( #30 ) ) ;
#170 = CARTESIAN_POINT ( 'NONE',  ( 0.0000000000000000000, 0.0000000000000000000, 0.0000000000000000000 ) ) ;
#171 = EDGE_CURVE ( 'NONE', #61, #61, #15, .T. ) ;
#172 = CARTESIAN_POINT ( 'NONE',  ( 4.615366004877058812E-16, -1.618852474416773836E-17, 0.1321893361860645988 ) ) ;
#173 = EDGE_LOOP ( 'NONE', ( #210 ) ) ;
#174 = DIRECTION ( 'NONE',  ( -3.491481338843133355E-15, 1.224646799147353207E-16, -1.000000000000000000 ) ) ;
#175 = DIRECTION ( 'NONE',  ( 4.377113509970994556E-31, 1.000000000000000000, 1.232047923278983432E-16 ) ) ;
#176 = CLOSED_SHELL ( 'NONE', ( #97, #2, #56, #208, #129 ) ) ;
#177 = CARTESIAN_POINT ( 'NONE',  ( 6.982962677686266711E-15, 1.649735760928039332E-33, 2.000000000000000000 ) ) ;
#178 = CONICAL_SURFACE ( 'NONE', #55, 0.2199999999999997791, 1.029744258676649649 ) ;
#179 = CYLINDRICAL_SURFACE ( 'NONE', #143, 0.4999999999999978351 ) ;
#180 = DIRECTION ( 'NONE',  ( 0.0000000000000000000, 1.000000000000000000, 0.0000000000000000000 ) ) ;
#181 = CALENDAR_DATE ( 2021, 8, 10 ) ;
#182 = AXIS2_PLACEMENT_3D ( 'NONE', #86, #20, #85 ) ;
#183 = PERSON_AND_ORGANIZATION_ROLE ( 'design_supplier' ) ;
#184 = APPROVAL_ROLE ( '' ) ;
#185 = PERSON_AND_ORGANIZATION_ROLE ( 'design_owner' ) ;
#186 = EDGE_LOOP ( 'NONE', ( #155 ) ) ;
#187 = APPROVAL_STATUS ( 'not_yet_approved' ) ;
#188 = ORIENTED_EDGE ( 'NONE', *, *, #73, .T. ) ;
#189 = MANIFOLD_SOLID_BREP ( 'Corps-Déplacer/Copier1[1]', #176 ) ;
#190 = EDGE_LOOP ( 'NONE', ( #101 ) ) ;
#191 = CIRCLE ( 'NONE', #134, 0.2199999999999999456 ) ;
#192 = PLANE ( 'NONE',  #142 ) ;
#193 = DIRECTION ( 'NONE',  ( 4.275831445896958607E-31, 1.000000000000000000, 1.224646799147353207E-16 ) ) ;
#194 = CARTESIAN_POINT ( 'NONE',  ( 6.982962677686265133E-15, -2.449293598294705921E-16, 1.999999999999999556 ) ) ;
#195 = CLOSED_SHELL ( 'NONE', ( #99, #120, #89 ) ) ;
#196 = PERSON ( 'UNSPECIFIED', 'UNSPECIFIED', 'UNSPECIFIED', ('UNSPECIFIED'), ('UNSPECIFIED'), ('UNSPECIFIED') ) ;
#197 = PRODUCT_DEFINITION_SHAPE ( 'NONE', 'NONE',  #102 ) ;
#198 = AXIS2_PLACEMENT_3D ( 'NONE', #172, #121, #175 ) ;
#199 = CARTESIAN_POINT ( 'NONE',  ( 6.982962677686265133E-15, -2.449293598294705921E-16, 1.999999999999999556 ) ) ;
#200 = FACE_OUTER_BOUND ( 'NONE', #138, .T. ) ;
#201 = CC_DESIGN_DATE_AND_TIME_ASSIGNMENT ( #204, #115, ( #102 ) ) ;
#202 = PERSON_AND_ORGANIZATION ( #196, #77 ) ;
#203 = DATE_TIME_ROLE ( 'classification_date' ) ;
#204 = DATE_AND_TIME ( #133, #82 ) ;
#205 = ORIENTED_EDGE ( 'NONE', *, *, #107, .T. ) ;
#206 = CARTESIAN_POINT ( 'NONE',  ( 1.043952920314096936E-13, 0.4999999999999954481, 29.90000000000000213 ) ) ;
#207 = AXIS2_PLACEMENT_3D ( 'NONE', #170, #98, #75 ) ;
#208 = ADVANCED_FACE ( 'NONE', ( #92, #163 ), #39, .T. ) ;
#209 = APPROVAL_ROLE ( '' ) ;
#210 = ORIENTED_EDGE ( 'NONE', *, *, #107, .F. ) ;
#211 = DIRECTION ( 'NONE',  ( -3.491481338843133355E-15, 1.224646799147353207E-16, -1.000000000000000000 ) ) ;
#212 = CIRCLE ( 'NONE', #108, 0.2199999999999999456 ) ;
#213 = COORDINATED_UNIVERSAL_TIME_OFFSET ( 1, 0, .AHEAD. ) ;
#214 = DIRECTION ( 'NONE',  ( 4.275831445896958607E-31, 1.000000000000000000, 1.224646799147353207E-16 ) ) ;
#215 = DIRECTION ( 'NONE',  ( 3.491481338843133355E-15, -1.224646799147353207E-16, 1.000000000000000000 ) ) ;
#216 = AXIS2_PLACEMENT_3D ( 'NONE', #24, #162, #180 ) ;
#217 = LOCAL_TIME ( 7, 16, 28.00000000000000000, #213 ) ;
#218 = CC_DESIGN_DATE_AND_TIME_ASSIGNMENT ( #135, #203, ( #105 ) ) ;
#219 = VERTEX_POINT ( 'NONE', #57 ) ;
#220 = DIRECTION ( 'NONE',  ( 0.0000000000000000000, 1.000000000000000000, 0.0000000000000000000 ) ) ;
#221 =( LENGTH_UNIT ( ) NAMED_UNIT ( * ) SI_UNIT ( .MILLI., .METRE. ) );
#222 = APPROVAL_ROLE ( '' ) ;
#223 = PERSON_AND_ORGANIZATION_ROLE ( 'classification_officer' ) ;
ENDSEC;
END-ISO-10303-21;
