ISO-10303-21;
HEADER;
FILE_DESCRIPTION (( 'STEP AP203' ),
    '1' );
FILE_NAME ('952679.step',
    '2021-10-08T05:16:28',
    ( '' ),
    ( '' ),
    'SwSTEP 2.0',
    'SolidWorks 2019',
    '' );
FILE_SCHEMA (( 'CONFIG_CONTROL_DESIGN' ));
ENDSEC;

DATA;
#1 = DIRECTION ( 'NONE',  ( 0.0000000000000000000, 1.000000000000000000, 0.0000000000000000000 ) ) ;
#2 = EDGE_LOOP ( 'NONE', ( #219 ) ) ;
#3 = APPROVAL ( #113, 'UNSPECIFIED' ) ;
#4 = LOCAL_TIME ( 7, 16, 28.00000000000000000, #25 ) ;
#5 = EDGE_CURVE ( 'NONE', #51, #51, #141, .T. ) ;
#6 = AXIS2_PLACEMENT_3D ( 'NONE', #50, #96, #202 ) ;
#7 = CALENDAR_DATE ( 2021, 8, 10 ) ;
#8 = DIRECTION ( 'NONE',  ( 0.0000000000000000000, 1.000000000000000000, 0.0000000000000000000 ) ) ;
#9 = SHAPE_DEFINITION_REPRESENTATION ( #183, #120 ) ;
#10 = DIRECTION ( 'NONE',  ( -3.491481338843133355E-15, 1.224646799147353207E-16, -1.000000000000000000 ) ) ;
#11 = PERSON_AND_ORGANIZATION ( #116, #195 ) ;
#12 = CARTESIAN_POINT ( 'NONE',  ( 1.047444401652940007E-13, 2.999519565323652267E-33, 30.00000000000000000 ) ) ;
#13 = DIRECTION ( 'NONE',  ( 0.0000000000000000000, 1.000000000000000000, 0.0000000000000000000 ) ) ;
#14 = CC_DESIGN_DATE_AND_TIME_ASSIGNMENT ( #89, #107, ( #144 ) ) ;
#15 = CARTESIAN_POINT ( 'NONE',  ( 1.043952920314096936E-13, 0.4999999999999954481, 29.90000000000000213 ) ) ;
#16 = DIRECTION ( 'NONE',  ( 0.0000000000000000000, 0.0000000000000000000, 1.000000000000000000 ) ) ;
#17 = DIRECTION ( 'NONE',  ( 3.491481338843133355E-15, -1.224646799147353207E-16, 1.000000000000000000 ) ) ;
#18 = AXIS2_PLACEMENT_3D ( 'NONE', #181, #66, #94 ) ;
#19 = DESIGN_CONTEXT ( 'detailed design', #161, 'design' ) ;
#20 = EDGE_CURVE ( 'NONE', #118, #118, #69, .T. ) ;
#21 = CC_DESIGN_APPROVAL ( #198, ( #144 ) ) ;
#22 = PERSON_AND_ORGANIZATION_ROLE ( 'design_supplier' ) ;
#23 = DIRECTION ( 'NONE',  ( 3.491481338843133355E-15, -1.224646799147353207E-16, 1.000000000000000000 ) ) ;
#24 = AXIS2_PLACEMENT_3D ( 'NONE', #172, #16, #158 ) ;
#25 = COORDINATED_UNIVERSAL_TIME_OFFSET ( 1, 0, .AHEAD. ) ;
#26 = ADVANCED_FACE ( 'NONE', ( #177, #36 ), #74, .T. ) ;
#27 = AXIS2_PLACEMENT_3D ( 'NONE', #106, #131, #8 ) ;
#28 = MECHANICAL_CONTEXT ( 'NONE', #70, 'mechanical' ) ;
#29 = AXIS2_PLACEMENT_3D ( 'NONE', #84, #101, #171 ) ;
#30 = DIRECTION ( 'NONE',  ( -3.491481338843133355E-15, 1.224646799147353207E-16, -1.000000000000000000 ) ) ;
#31 = VERTEX_POINT ( 'NONE', #187 ) ;
#32 =( GEOMETRIC_REPRESENTATION_CONTEXT ( 3 ) GLOBAL_UNCERTAINTY_ASSIGNED_CONTEXT ( ( #100 ) ) GLOBAL_UNIT_ASSIGNED_CONTEXT ( ( #115, #176, #189 ) ) REPRESENTATION_CONTEXT ( 'NONE', 'WORKASPACE' ) );
#33 = CIRCLE ( 'NONE', #18, 0.2149999999999999412 ) ;
#34 = APPROVAL_PERSON_ORGANIZATION ( #147, #198, #149 ) ;
#35 = VERTEX_POINT ( 'NONE', #124 ) ;
#36 = FACE_OUTER_BOUND ( 'NONE', #138, .T. ) ;
#37 = CALENDAR_DATE ( 2021, 8, 10 ) ;
#38 = VERTEX_POINT ( 'NONE', #207 ) ;
#39 = EDGE_LOOP ( 'NONE', ( #192 ) ) ;
#40 = DATE_AND_TIME ( #37, #82 ) ;
#41 = MANIFOLD_SOLID_BREP ( 'Corps-Déplacer/Copier1[2]', #108 ) ;
#42 = DIRECTION ( 'NONE',  ( 0.0000000000000000000, 1.000000000000000000, 0.0000000000000000000 ) ) ;
#43 = APPROVAL_DATE_TIME ( #76, #3 ) ;
#44 = DIRECTION ( 'NONE',  ( -3.491481338843133355E-15, 1.224646799147353207E-16, -1.000000000000000000 ) ) ;
#45 = EDGE_LOOP ( 'NONE', ( #68 ) ) ;
#46 = DATE_AND_TIME ( #200, #4 ) ;
#47 = AXIS2_PLACEMENT_3D ( 'NONE', #58, #30, #13 ) ;
#48 = CIRCLE ( 'NONE', #204, 0.4999999999999966693 ) ;
#49 = CARTESIAN_POINT ( 'NONE',  ( 1.069662261650505922E-14, -3.751870159881914460E-16, 3.063634480157146012 ) ) ;
#50 = CARTESIAN_POINT ( 'NONE',  ( 4.510471322948033022E-16, -1.582060372725483486E-17, 0.1291850330909267430 ) ) ;
#51 = VERTEX_POINT ( 'NONE', #163 ) ;
#52 = CARTESIAN_POINT ( 'NONE',  ( 6.982962677686265133E-15, -2.449293598294705921E-16, 1.999999999999999556 ) ) ;
#53 = PLANE ( 'NONE',  #166 ) ;
#54 = APPROVAL_PERSON_ORGANIZATION ( #11, #3, #154 ) ;
#55 = CYLINDRICAL_SURFACE ( 'NONE', #56, 0.4999999999999978351 ) ;
#56 = AXIS2_PLACEMENT_3D ( 'NONE', #127, #125, #132 ) ;
#57 = PERSON_AND_ORGANIZATION_ROLE ( 'creator' ) ;
#58 = CARTESIAN_POINT ( 'NONE',  ( 1.047444401652940007E-13, -3.673940397442059178E-15, 30.00000000000000000 ) ) ;
#59 = EDGE_CURVE ( 'NONE', #196, #196, #98, .T. ) ;
#60 = PERSON_AND_ORGANIZATION ( #116, #195 ) ;
#61 = PERSON_AND_ORGANIZATION_ROLE ( 'creator' ) ;
#62 = PLANE ( 'NONE',  #170 ) ;
#63 = ORIENTED_EDGE ( 'NONE', *, *, #5, .F. ) ;
#64 = ORIENTED_EDGE ( 'NONE', *, *, #20, .F. ) ;
#65 = CARTESIAN_POINT ( 'NONE',  ( 4.510471322948034008E-16, 0.2149999999999997469, 0.1291850330909267708 ) ) ;
#66 = DIRECTION ( 'NONE',  ( -3.491481338843133355E-15, 1.224646799147353207E-16, -1.000000000000000000 ) ) ;
#67 = ADVANCED_FACE ( 'NONE', ( #150, #168 ), #55, .T. ) ;
#68 = ORIENTED_EDGE ( 'NONE', *, *, #126, .F. ) ;
#69 = CIRCLE ( 'NONE', #193, 0.2149999999999997746 ) ;
#70 = APPLICATION_CONTEXT ( 'configuration controlled 3d designs of mechanical parts and assemblies' ) ;
#71 = ADVANCED_FACE ( 'NONE', ( #136 ), #201, .F. ) ;
#72 = CONICAL_SURFACE ( 'NONE', #6, 0.2149999999999997746, 1.029744258676649649 ) ;
#73 = PRODUCT_DEFINITION_FORMATION_WITH_SPECIFIED_SOURCE ( 'ANY', '', #221, .NOT_KNOWN. ) ;
#74 = CYLINDRICAL_SURFACE ( 'NONE', #151, 0.2149999999999998579 ) ;
#75 = EDGE_LOOP ( 'NONE', ( #184 ) ) ;
#76 = DATE_AND_TIME ( #7, #121 ) ;
#77 = PERSON_AND_ORGANIZATION ( #116, #195 ) ;
#78 = COORDINATED_UNIVERSAL_TIME_OFFSET ( 1, 0, .AHEAD. ) ;
#79 = ORIENTED_EDGE ( 'NONE', *, *, #110, .T. ) ;
#80 = ADVANCED_FACE ( 'NONE', ( #155, #218 ), #143, .T. ) ;
#81 = CC_DESIGN_PERSON_AND_ORGANIZATION_ASSIGNMENT ( #60, #214, ( #144 ) ) ;
#82 = LOCAL_TIME ( 7, 16, 28.00000000000000000, #78 ) ;
#83 = DIRECTION ( 'NONE',  ( 0.0000000000000000000, 1.000000000000000000, 0.0000000000000000000 ) ) ;
#84 = CARTESIAN_POINT ( 'NONE',  ( 1.069662261650505922E-14, -3.751870159881914460E-16, 3.063634480157146012 ) ) ;
#85 = CIRCLE ( 'NONE', #182, 0.3999999999999989675 ) ;
#86 = ORIENTED_EDGE ( 'NONE', *, *, #59, .T. ) ;
#87 = CC_DESIGN_PERSON_AND_ORGANIZATION_ASSIGNMENT ( #93, #174, ( #221 ) ) ;
#88 = CARTESIAN_POINT ( 'NONE',  ( 6.982962677686266711E-15, 1.612241766361492960E-33, 2.000000000000000000 ) ) ;
#89 = DATE_AND_TIME ( #134, #117 ) ;
#90 = DIRECTION ( 'NONE',  ( -4.275831445896958607E-31, -1.000000000000000000, -1.224646799147353207E-16 ) ) ;
#91 = CC_DESIGN_PERSON_AND_ORGANIZATION_ASSIGNMENT ( #178, #57, ( #73 ) ) ;
#92 = APPLICATION_PROTOCOL_DEFINITION ( 'international standard', 'config_control_design', 1994, #161 ) ;
#93 = PERSON_AND_ORGANIZATION ( #116, #195 ) ;
#94 = DIRECTION ( 'NONE',  ( 0.0000000000000000000, 1.000000000000000000, 0.0000000000000000000 ) ) ;
#95 = EDGE_LOOP ( 'NONE', ( #63 ) ) ;
#96 = DIRECTION ( 'NONE',  ( 3.491481338843133355E-15, -1.224646799147353207E-16, 1.000000000000000000 ) ) ;
#97 = EDGE_LOOP ( 'NONE', ( #213 ) ) ;
#98 = CIRCLE ( 'NONE', #27, 0.4999999999999991673 ) ;
#99 = ADVANCED_FACE ( 'NONE', ( #164 ), #72, .T. ) ;
#100 = UNCERTAINTY_MEASURE_WITH_UNIT (LENGTH_MEASURE( 1.000000000000000082E-05 ), #115, 'distance_accuracy_value', 'NONE');
#101 = DIRECTION ( 'NONE',  ( 3.491481338843133355E-15, -1.224646799147353207E-16, 1.000000000000000000 ) ) ;
#102 = LOCAL_TIME ( 7, 16, 28.00000000000000000, #157 ) ;
#103 = ADVANCED_FACE ( 'NONE', ( #222 ), #53, .F. ) ;
#104 = DIRECTION ( 'NONE',  ( -3.491481338843133355E-15, 1.224646799147353207E-16, -1.000000000000000000 ) ) ;
#105 = CALENDAR_DATE ( 2021, 8, 10 ) ;
#106 = CARTESIAN_POINT ( 'NONE',  ( 1.043952920314096936E-13, -3.661693929450586610E-15, 29.90000000000000213 ) ) ;
#107 = DATE_TIME_ROLE ( 'classification_date' ) ;
#108 = CLOSED_SHELL ( 'NONE', ( #99, #26, #203 ) ) ;
#109 = APPROVAL_ROLE ( '' ) ;
#110 = EDGE_CURVE ( 'NONE', #31, #31, #33, .T. ) ;
#111 = DIRECTION ( 'NONE',  ( 4.478906847412180965E-31, 1.000000000000000000, 1.260700200564541324E-16 ) ) ;
#112 = PERSON_AND_ORGANIZATION ( #116, #195 ) ;
#113 = APPROVAL_STATUS ( 'not_yet_approved' ) ;
#114 = AXIS2_PLACEMENT_3D ( 'NONE', #12, #133, #199 ) ;
#115 =( LENGTH_UNIT ( ) NAMED_UNIT ( * ) SI_UNIT ( .MILLI., .METRE. ) );
#116 = PERSON ( 'UNSPECIFIED', 'UNSPECIFIED', 'UNSPECIFIED', ('UNSPECIFIED'), ('UNSPECIFIED'), ('UNSPECIFIED') ) ;
#117 = LOCAL_TIME ( 7, 16, 28.00000000000000000, #191 ) ;
#118 = VERTEX_POINT ( 'NONE', #65 ) ;
#119 = DIRECTION ( 'NONE',  ( -3.491481338843133355E-15, 1.224646799147353207E-16, -1.000000000000000000 ) ) ;
#120 = ADVANCED_BREP_SHAPE_REPRESENTATION ( '952679', ( #190, #41, #24 ), #32 ) ;
#121 = LOCAL_TIME ( 7, 16, 28.00000000000000000, #156 ) ;
#122 = CARTESIAN_POINT ( 'NONE',  ( 6.982962677686266711E-15, 1.612241766361492960E-33, 2.000000000000000000 ) ) ;
#123 = CONICAL_SURFACE ( 'NONE', #29, 0.4999999999999966693, 0.2617993877991426910 ) ;
#124 = CARTESIAN_POINT ( 'NONE',  ( 1.069662261650505922E-14, 0.4999999999999963363, 3.063634480157146012 ) ) ;
#125 = DIRECTION ( 'NONE',  ( -3.491481338843133355E-15, 1.224646799147353207E-16, -1.000000000000000000 ) ) ;
#126 = EDGE_CURVE ( 'NONE', #35, #35, #48, .T. ) ;
#127 = CARTESIAN_POINT ( 'NONE',  ( 0.0000000000000000000, 0.0000000000000000000, 0.0000000000000000000 ) ) ;
#128 = CARTESIAN_POINT ( 'NONE',  ( 0.0000000000000000000, 0.0000000000000000000, 0.0000000000000000000 ) ) ;
#129 = FACE_OUTER_BOUND ( 'NONE', #97, .T. ) ;
#130 = SECURITY_CLASSIFICATION_LEVEL ( 'unclassified' ) ;
#131 = DIRECTION ( 'NONE',  ( -3.491481338843133355E-15, 1.224646799147353207E-16, -1.000000000000000000 ) ) ;
#132 = DIRECTION ( 'NONE',  ( 4.275831445896958607E-31, 1.000000000000000000, 1.224646799147353207E-16 ) ) ;
#133 = DIRECTION ( 'NONE',  ( -3.491481338843133355E-15, 1.224646799147353207E-16, -1.000000000000000000 ) ) ;
#134 = CALENDAR_DATE ( 2021, 8, 10 ) ;
#135 = ADVANCED_FACE ( 'NONE', ( #185, #139 ), #123, .T. ) ;
#136 = FACE_OUTER_BOUND ( 'NONE', #39, .T. ) ;
#137 = PRODUCT_RELATED_PRODUCT_CATEGORY ( 'detail', '', ( #221 ) ) ;
#138 = EDGE_LOOP ( 'NONE', ( #79 ) ) ;
#139 = FACE_OUTER_BOUND ( 'NONE', #197, .T. ) ;
#140 = APPROVAL_PERSON_ORGANIZATION ( #112, #210, #109 ) ;
#141 = CIRCLE ( 'NONE', #223, 0.2149999999999999412 ) ;
#142 = CC_DESIGN_APPROVAL ( #210, ( #73 ) ) ;
#143 = CONICAL_SURFACE ( 'NONE', #47, 0.3999999999999989675, 0.7853981633974694843 ) ;
#144 = SECURITY_CLASSIFICATION ( '', '', #130 ) ;
#145 = DIRECTION ( 'NONE',  ( -4.275831445896958607E-31, -1.000000000000000000, -1.224646799147353207E-16 ) ) ;
#146 = APPROVAL_DATE_TIME ( #173, #210 ) ;
#147 = PERSON_AND_ORGANIZATION ( #116, #195 ) ;
#148 = EDGE_LOOP ( 'NONE', ( #188 ) ) ;
#149 = APPROVAL_ROLE ( '' ) ;
#150 = FACE_OUTER_BOUND ( 'NONE', #45, .T. ) ;
#151 = AXIS2_PLACEMENT_3D ( 'NONE', #128, #44, #159 ) ;
#152 = DIRECTION ( 'NONE',  ( -3.491481338843133355E-15, 1.224646799147353207E-16, -1.000000000000000000 ) ) ;
#153 = EDGE_LOOP ( 'NONE', ( #86 ) ) ;
#154 = APPROVAL_ROLE ( '' ) ;
#155 = FACE_OUTER_BOUND ( 'NONE', #75, .T. ) ;
#156 = COORDINATED_UNIVERSAL_TIME_OFFSET ( 1, 0, .AHEAD. ) ;
#157 = COORDINATED_UNIVERSAL_TIME_OFFSET ( 1, 0, .AHEAD. ) ;
#158 = DIRECTION ( 'NONE',  ( 1.000000000000000000, 0.0000000000000000000, 0.0000000000000000000 ) ) ;
#159 = DIRECTION ( 'NONE',  ( 4.275831445896958607E-31, 1.000000000000000000, 1.224646799147353207E-16 ) ) ;
#160 = APPROVAL_STATUS ( 'not_yet_approved' ) ;
#161 = APPLICATION_CONTEXT ( 'configuration controlled 3d designs of mechanical parts and assemblies' ) ;
#162 = ORIENTED_EDGE ( 'NONE', *, *, #5, .T. ) ;
#163 = CARTESIAN_POINT ( 'NONE',  ( 6.982962677686265133E-15, 0.2149999999999996914, 1.999999999999999556 ) ) ;
#164 = FACE_OUTER_BOUND ( 'NONE', #2, .T. ) ;
#165 = EDGE_CURVE ( 'NONE', #38, #38, #85, .T. ) ;
#166 = AXIS2_PLACEMENT_3D ( 'NONE', #122, #17, #145 ) ;
#167 = PRODUCT_DEFINITION ( 'UNKNOWN', '', #73, #19 ) ;
#168 = FACE_OUTER_BOUND ( 'NONE', #153, .T. ) ;
#169 = CLOSED_SHELL ( 'NONE', ( #103, #135, #67, #80, #71 ) ) ;
#170 = AXIS2_PLACEMENT_3D ( 'NONE', #88, #23, #90 ) ;
#171 = DIRECTION ( 'NONE',  ( 0.0000000000000000000, -1.000000000000000000, 0.0000000000000000000 ) ) ;
#172 = CARTESIAN_POINT ( 'NONE',  ( 0.0000000000000000000, 0.0000000000000000000, 0.0000000000000000000 ) ) ;
#173 = DATE_AND_TIME ( #105, #102 ) ;
#174 = PERSON_AND_ORGANIZATION_ROLE ( 'design_owner' ) ;
#175 = EDGE_LOOP ( 'NONE', ( #162 ) ) ;
#176 =( NAMED_UNIT ( * ) PLANE_ANGLE_UNIT ( ) SI_UNIT ( $, .RADIAN. ) );
#177 = FACE_OUTER_BOUND ( 'NONE', #217, .T. ) ;
#178 = PERSON_AND_ORGANIZATION ( #116, #195 ) ;
#179 = APPROVAL_DATE_TIME ( #46, #198 ) ;
#180 = CC_DESIGN_SECURITY_CLASSIFICATION ( #144, ( #73 ) ) ;
#181 = CARTESIAN_POINT ( 'NONE',  ( 6.982962677686265133E-15, -2.449293598294705921E-16, 1.999999999999999556 ) ) ;
#182 = AXIS2_PLACEMENT_3D ( 'NONE', #209, #152, #83 ) ;
#183 = PRODUCT_DEFINITION_SHAPE ( 'NONE', 'NONE',  #167 ) ;
#184 = ORIENTED_EDGE ( 'NONE', *, *, #59, .F. ) ;
#185 = FACE_BOUND ( 'NONE', #95, .T. ) ;
#186 = CC_DESIGN_DATE_AND_TIME_ASSIGNMENT ( #40, #212, ( #167 ) ) ;
#187 = CARTESIAN_POINT ( 'NONE',  ( 6.982962677686265133E-15, 0.2149999999999996914, 1.999999999999999556 ) ) ;
#188 = ORIENTED_EDGE ( 'NONE', *, *, #165, .T. ) ;
#189 =( NAMED_UNIT ( * ) SI_UNIT ( $, .STERADIAN. ) SOLID_ANGLE_UNIT ( ) );
#190 = MANIFOLD_SOLID_BREP ( 'Corps-Déplacer/Copier1[1]', #169 ) ;
#191 = COORDINATED_UNIVERSAL_TIME_OFFSET ( 1, 0, .AHEAD. ) ;
#192 = ORIENTED_EDGE ( 'NONE', *, *, #165, .F. ) ;
#193 = AXIS2_PLACEMENT_3D ( 'NONE', #206, #104, #111 ) ;
#194 = PERSON_AND_ORGANIZATION ( #116, #195 ) ;
#195 = ORGANIZATION ( 'UNSPECIFIED', 'UNSPECIFIED', '' ) ;
#196 = VERTEX_POINT ( 'NONE', #15 ) ;
#197 = EDGE_LOOP ( 'NONE', ( #211 ) ) ;
#198 = APPROVAL ( #216, 'UNSPECIFIED' ) ;
#199 = DIRECTION ( 'NONE',  ( 4.275831445896958607E-31, 1.000000000000000000, 1.224646799147353207E-16 ) ) ;
#200 = CALENDAR_DATE ( 2021, 8, 10 ) ;
#201 = PLANE ( 'NONE',  #114 ) ;
#202 = DIRECTION ( 'NONE',  ( -4.478906847412180965E-31, -1.000000000000000000, -1.260700200564541324E-16 ) ) ;
#203 = ADVANCED_FACE ( 'NONE', ( #129 ), #62, .T. ) ;
#204 = AXIS2_PLACEMENT_3D ( 'NONE', #49, #119, #1 ) ;
#205 = CC_DESIGN_PERSON_AND_ORGANIZATION_ASSIGNMENT ( #194, #22, ( #73 ) ) ;
#206 = CARTESIAN_POINT ( 'NONE',  ( 4.510471322948033022E-16, -1.582060372725483486E-17, 0.1291850330909267430 ) ) ;
#207 = CARTESIAN_POINT ( 'NONE',  ( 1.047444401652940007E-13, 0.3999999999999953038, 30.00000000000000000 ) ) ;
#208 = CC_DESIGN_PERSON_AND_ORGANIZATION_ASSIGNMENT ( #77, #61, ( #167 ) ) ;
#209 = CARTESIAN_POINT ( 'NONE',  ( 1.047444401652940007E-13, -3.673940397442059178E-15, 30.00000000000000000 ) ) ;
#210 = APPROVAL ( #160, 'UNSPECIFIED' ) ;
#211 = ORIENTED_EDGE ( 'NONE', *, *, #126, .T. ) ;
#212 = DATE_TIME_ROLE ( 'creation_date' ) ;
#213 = ORIENTED_EDGE ( 'NONE', *, *, #110, .F. ) ;
#214 = PERSON_AND_ORGANIZATION_ROLE ( 'classification_officer' ) ;
#215 = CC_DESIGN_APPROVAL ( #3, ( #167 ) ) ;
#216 = APPROVAL_STATUS ( 'not_yet_approved' ) ;
#217 = EDGE_LOOP ( 'NONE', ( #64 ) ) ;
#218 = FACE_BOUND ( 'NONE', #148, .T. ) ;
#219 = ORIENTED_EDGE ( 'NONE', *, *, #20, .T. ) ;
#220 = APPLICATION_PROTOCOL_DEFINITION ( 'international standard', 'config_control_design', 1994, #70 ) ;
#221 = PRODUCT ( '952679', '952679', '', ( #28 ) ) ;
#222 = FACE_OUTER_BOUND ( 'NONE', #175, .T. ) ;
#223 = AXIS2_PLACEMENT_3D ( 'NONE', #52, #10, #42 ) ;
ENDSEC;
END-ISO-10303-21;
