ISO-10303-21;
HEADER;
FILE_DESCRIPTION (( 'STEP AP203' ),
    '1' );
FILE_NAME ('952678.step',
    '2021-10-08T05:16:27',
    ( '' ),
    ( '' ),
    'SwSTEP 2.0',
    'SolidWorks 2019',
    '' );
FILE_SCHEMA (( 'CONFIG_CONTROL_DESIGN' ));
ENDSEC;

DATA;
#1 = APPLICATION_PROTOCOL_DEFINITION ( 'international standard', 'config_control_design', 1994, #212 ) ;
#2 = EDGE_CURVE ( 'NONE', #206, #206, #189, .T. ) ;
#3 = DESIGN_CONTEXT ( 'detailed design', #67, 'design' ) ;
#4 = ADVANCED_FACE ( 'NONE', ( #114, #87 ), #191, .T. ) ;
#5 = EDGE_LOOP ( 'NONE', ( #54 ) ) ;
#6 = AXIS2_PLACEMENT_3D ( 'NONE', #137, #15, #81 ) ;
#7 = FACE_BOUND ( 'NONE', #9, .T. ) ;
#8 = PERSON_AND_ORGANIZATION_ROLE ( 'creator' ) ;
#9 = EDGE_LOOP ( 'NONE', ( #196 ) ) ;
#10 = AXIS2_PLACEMENT_3D ( 'NONE', #156, #160, #100 ) ;
#11 = PERSON_AND_ORGANIZATION ( #131, #104 ) ;
#12 = PLANE ( 'NONE',  #149 ) ;
#13 = PERSON_AND_ORGANIZATION ( #131, #104 ) ;
#14 = DIRECTION ( 'NONE',  ( -3.491481338843133355E-15, 1.224646799147353207E-16, -1.000000000000000000 ) ) ;
#15 = DIRECTION ( 'NONE',  ( 3.491481338843133355E-15, -1.224646799147353207E-16, 1.000000000000000000 ) ) ;
#16 = CONICAL_SURFACE ( 'NONE', #37, 0.4999999999999966693, 0.2617993877991428020 ) ;
#17 = FACE_OUTER_BOUND ( 'NONE', #5, .T. ) ;
#18 = COORDINATED_UNIVERSAL_TIME_OFFSET ( 1, 0, .AHEAD. ) ;
#19 = SECURITY_CLASSIFICATION ( '', '', #25 ) ;
#20 = CIRCLE ( 'NONE', #112, 0.3999999999999989675 ) ;
#21 = DIRECTION ( 'NONE',  ( -3.491481338843133355E-15, 1.224646799147353207E-16, -1.000000000000000000 ) ) ;
#22 = CARTESIAN_POINT ( 'NONE',  ( 1.076177454525626749E-14, -3.774722380260637667E-16, 3.082294734194991115 ) ) ;
#23 = EDGE_CURVE ( 'NONE', #121, #121, #20, .T. ) ;
#24 = FACE_OUTER_BOUND ( 'NONE', #150, .T. ) ;
#25 = SECURITY_CLASSIFICATION_LEVEL ( 'unclassified' ) ;
#26 = CYLINDRICAL_SURFACE ( 'NONE', #175, 0.4999999999999978351 ) ;
#27 = CARTESIAN_POINT ( 'NONE',  ( 0.0000000000000000000, 0.0000000000000000000, 0.0000000000000000000 ) ) ;
#28 = FACE_OUTER_BOUND ( 'NONE', #72, .T. ) ;
#29 = LOCAL_TIME ( 7, 16, 27.00000000000000000, #18 ) ;
#30 = APPROVAL ( #115, 'UNSPECIFIED' ) ;
#31 = CLOSED_SHELL ( 'NONE', ( #213, #188, #146 ) ) ;
#32 = AXIS2_PLACEMENT_3D ( 'NONE', #77, #82, #181 ) ;
#33 = FACE_OUTER_BOUND ( 'NONE', #91, .T. ) ;
#34 = APPROVAL_ROLE ( '' ) ;
#35 = EDGE_LOOP ( 'NONE', ( #36 ) ) ;
#36 = ORIENTED_EDGE ( 'NONE', *, *, #161, .F. ) ;
#37 = AXIS2_PLACEMENT_3D ( 'NONE', #22, #215, #179 ) ;
#38 = CARTESIAN_POINT ( 'NONE',  ( 1.047444401652940007E-13, -3.673940397442059178E-15, 30.00000000000000000 ) ) ;
#39 = CARTESIAN_POINT ( 'NONE',  ( 0.0000000000000000000, 0.0000000000000000000, 0.0000000000000000000 ) ) ;
#40 = DATE_AND_TIME ( #204, #84 ) ;
#41 = CARTESIAN_POINT ( 'NONE',  ( 1.047444401652940007E-13, -3.673940397442059178E-15, 30.00000000000000000 ) ) ;
#42 = DATE_AND_TIME ( #180, #141 ) ;
#43 =( NAMED_UNIT ( * ) PLANE_ANGLE_UNIT ( ) SI_UNIT ( $, .RADIAN. ) );
#44 = DIRECTION ( 'NONE',  ( -3.491481338843133355E-15, 1.224646799147353207E-16, -1.000000000000000000 ) ) ;
#45 = CARTESIAN_POINT ( 'NONE',  ( 6.982962677686266711E-15, -2.449293598294706414E-16, 2.000000000000000000 ) ) ;
#46 = CARTESIAN_POINT ( 'NONE',  ( 4.405576641019008219E-16, -1.545268271034192521E-17, 0.1261807299957888873 ) ) ;
#47 = DATE_AND_TIME ( #113, #83 ) ;
#48 = VERTEX_POINT ( 'NONE', #123 ) ;
#49 =( GEOMETRIC_REPRESENTATION_CONTEXT ( 3 ) GLOBAL_UNCERTAINTY_ASSIGNED_CONTEXT ( ( #147 ) ) GLOBAL_UNIT_ASSIGNED_CONTEXT ( ( #217, #43, #76 ) ) REPRESENTATION_CONTEXT ( 'NONE', 'WORKASPACE' ) );
#50 = DIRECTION ( 'NONE',  ( 1.000000000000000000, 0.0000000000000000000, 0.0000000000000000000 ) ) ;
#51 = APPROVAL_STATUS ( 'not_yet_approved' ) ;
#52 = AXIS2_PLACEMENT_3D ( 'NONE', #41, #133, #164 ) ;
#53 = DATE_TIME_ROLE ( 'creation_date' ) ;
#54 = ORIENTED_EDGE ( 'NONE', *, *, #205, .T. ) ;
#55 = COORDINATED_UNIVERSAL_TIME_OFFSET ( 1, 0, .AHEAD. ) ;
#56 = EDGE_LOOP ( 'NONE', ( #214 ) ) ;
#57 = FACE_OUTER_BOUND ( 'NONE', #56, .T. ) ;
#58 = FACE_OUTER_BOUND ( 'NONE', #155, .T. ) ;
#59 = AXIS2_PLACEMENT_3D ( 'NONE', #46, #96, #202 ) ;
#60 = DIRECTION ( 'NONE',  ( 3.491481338843133355E-15, -1.224646799147353207E-16, 1.000000000000000000 ) ) ;
#61 = SHAPE_DEFINITION_REPRESENTATION ( #216, #211 ) ;
#62 = CC_DESIGN_DATE_AND_TIME_ASSIGNMENT ( #47, #223, ( #19 ) ) ;
#63 = CARTESIAN_POINT ( 'NONE',  ( 6.982962677686266711E-15, 1.574747771794946588E-33, 2.000000000000000000 ) ) ;
#64 = DIRECTION ( 'NONE',  ( 4.275831445896958607E-31, 1.000000000000000000, 1.224646799147353207E-16 ) ) ;
#65 = ADVANCED_FACE ( 'NONE', ( #7, #57 ), #16, .T. ) ;
#66 = AXIS2_PLACEMENT_3D ( 'NONE', #27, #139, #98 ) ;
#67 = APPLICATION_CONTEXT ( 'configuration controlled 3d designs of mechanical parts and assemblies' ) ;
#68 = ADVANCED_FACE ( 'NONE', ( #33 ), #92, .F. ) ;
#69 = APPLICATION_PROTOCOL_DEFINITION ( 'international standard', 'config_control_design', 1994, #67 ) ;
#70 = PERSON_AND_ORGANIZATION_ROLE ( 'design_owner' ) ;
#71 = EDGE_LOOP ( 'NONE', ( #176 ) ) ;
#72 = EDGE_LOOP ( 'NONE', ( #166 ) ) ;
#73 = CC_DESIGN_PERSON_AND_ORGANIZATION_ASSIGNMENT ( #136, #200, ( #89 ) ) ;
#74 = ORIENTED_EDGE ( 'NONE', *, *, #23, .T. ) ;
#75 = ORIENTED_EDGE ( 'NONE', *, *, #85, .F. ) ;
#76 =( NAMED_UNIT ( * ) SI_UNIT ( $, .STERADIAN. ) SOLID_ANGLE_UNIT ( ) );
#77 = CARTESIAN_POINT ( 'NONE',  ( 6.982962677686266711E-15, -2.449293598294706414E-16, 2.000000000000000000 ) ) ;
#78 = CARTESIAN_POINT ( 'NONE',  ( 1.076177454525626749E-14, 0.4999999999999963363, 3.082294734194991115 ) ) ;
#79 = AXIS2_PLACEMENT_3D ( 'NONE', #108, #169, #64 ) ;
#80 = AXIS2_PLACEMENT_3D ( 'NONE', #221, #44, #117 ) ;
#81 = DIRECTION ( 'NONE',  ( -4.585547486636280678E-31, -1.000000000000000000, -1.290716872006554259E-16 ) ) ;
#82 = DIRECTION ( 'NONE',  ( -3.491481338843133355E-15, 1.224646799147353207E-16, -1.000000000000000000 ) ) ;
#83 = LOCAL_TIME ( 7, 16, 27.00000000000000000, #55 ) ;
#84 = LOCAL_TIME ( 7, 16, 27.00000000000000000, #140 ) ;
#85 = EDGE_CURVE ( 'NONE', #158, #158, #197, .T. ) ;
#86 = DIRECTION ( 'NONE',  ( 0.0000000000000000000, 0.0000000000000000000, 1.000000000000000000 ) ) ;
#87 = FACE_BOUND ( 'NONE', #199, .T. ) ;
#88 = AXIS2_PLACEMENT_3D ( 'NONE', #178, #153, #151 ) ;
#89 = PRODUCT_DEFINITION_FORMATION_WITH_SPECIFIED_SOURCE ( 'ANY', '', #90, .NOT_KNOWN. ) ;
#90 = PRODUCT ( '952678', '952678', '', ( #125 ) ) ;
#91 = EDGE_LOOP ( 'NONE', ( #93 ) ) ;
#92 = PLANE ( 'NONE',  #79 ) ;
#93 = ORIENTED_EDGE ( 'NONE', *, *, #23, .F. ) ;
#94 = CLOSED_SHELL ( 'NONE', ( #167, #65, #185, #4, #68 ) ) ;
#95 = CIRCLE ( 'NONE', #59, 0.2099999999999997702 ) ;
#96 = DIRECTION ( 'NONE',  ( -3.491481338843133355E-15, 1.224646799147353207E-16, -1.000000000000000000 ) ) ;
#97 = PRODUCT_RELATED_PRODUCT_CATEGORY ( 'detail', '', ( #90 ) ) ;
#98 = DIRECTION ( 'NONE',  ( 4.275831445896958607E-31, 1.000000000000000000, 1.224646799147353207E-16 ) ) ;
#99 = PERSON_AND_ORGANIZATION ( #131, #104 ) ;
#100 = DIRECTION ( 'NONE',  ( -4.275831445896958607E-31, -1.000000000000000000, -1.224646799147353207E-16 ) ) ;
#101 = CC_DESIGN_APPROVAL ( #30, ( #119 ) ) ;
#102 = CARTESIAN_POINT ( 'NONE',  ( 6.982962677686266711E-15, 0.2099999999999996869, 2.000000000000000000 ) ) ;
#103 = CC_DESIGN_DATE_AND_TIME_ASSIGNMENT ( #174, #53, ( #119 ) ) ;
#104 = ORGANIZATION ( 'UNSPECIFIED', 'UNSPECIFIED', '' ) ;
#105 = CIRCLE ( 'NONE', #32, 0.2099999999999999367 ) ;
#106 = EDGE_CURVE ( 'NONE', #157, #157, #95, .T. ) ;
#107 = PERSON_AND_ORGANIZATION ( #131, #104 ) ;
#108 = CARTESIAN_POINT ( 'NONE',  ( 1.047444401652940007E-13, 2.999519565323652267E-33, 30.00000000000000000 ) ) ;
#109 = EDGE_LOOP ( 'NONE', ( #195 ) ) ;
#110 = PERSON_AND_ORGANIZATION ( #131, #104 ) ;
#111 = EDGE_LOOP ( 'NONE', ( #75 ) ) ;
#112 = AXIS2_PLACEMENT_3D ( 'NONE', #38, #21, #193 ) ;
#113 = CALENDAR_DATE ( 2021, 8, 10 ) ;
#114 = FACE_OUTER_BOUND ( 'NONE', #109, .T. ) ;
#115 = APPROVAL_STATUS ( 'not_yet_approved' ) ;
#116 = MANIFOLD_SOLID_BREP ( 'Corps-Déplacer/Copier1[2]', #31 ) ;
#117 = DIRECTION ( 'NONE',  ( 0.0000000000000000000, 1.000000000000000000, 0.0000000000000000000 ) ) ;
#118 = CC_DESIGN_APPROVAL ( #198, ( #19 ) ) ;
#119 = PRODUCT_DEFINITION ( 'UNKNOWN', '', #89, #3 ) ;
#120 = CARTESIAN_POINT ( 'NONE',  ( 1.047444401652940007E-13, 0.3999999999999953038, 30.00000000000000000 ) ) ;
#121 = VERTEX_POINT ( 'NONE', #120 ) ;
#122 = MANIFOLD_SOLID_BREP ( 'Corps-Déplacer/Copier1[1]', #94 ) ;
#123 = CARTESIAN_POINT ( 'NONE',  ( 6.982962677686266711E-15, 0.2099999999999996869, 2.000000000000000000 ) ) ;
#124 = LOCAL_TIME ( 7, 16, 27.00000000000000000, #132 ) ;
#125 = MECHANICAL_CONTEXT ( 'NONE', #212, 'mechanical' ) ;
#126 = CALENDAR_DATE ( 2021, 8, 10 ) ;
#127 = APPROVAL_STATUS ( 'not_yet_approved' ) ;
#128 = CC_DESIGN_PERSON_AND_ORGANIZATION_ASSIGNMENT ( #13, #165, ( #19 ) ) ;
#129 = PERSON_AND_ORGANIZATION ( #131, #104 ) ;
#130 = COORDINATED_UNIVERSAL_TIME_OFFSET ( 1, 0, .AHEAD. ) ;
#131 = PERSON ( 'UNSPECIFIED', 'UNSPECIFIED', 'UNSPECIFIED', ('UNSPECIFIED'), ('UNSPECIFIED'), ('UNSPECIFIED') ) ;
#132 = COORDINATED_UNIVERSAL_TIME_OFFSET ( 1, 0, .AHEAD. ) ;
#133 = DIRECTION ( 'NONE',  ( -3.491481338843133355E-15, 1.224646799147353207E-16, -1.000000000000000000 ) ) ;
#134 = AXIS2_PLACEMENT_3D ( 'NONE', #45, #222, #183 ) ;
#135 = APPROVAL_ROLE ( '' ) ;
#136 = PERSON_AND_ORGANIZATION ( #131, #104 ) ;
#137 = CARTESIAN_POINT ( 'NONE',  ( 4.405576641019008219E-16, -1.545268271034192521E-17, 0.1261807299957888873 ) ) ;
#138 = CC_DESIGN_PERSON_AND_ORGANIZATION_ASSIGNMENT ( #110, #8, ( #119 ) ) ;
#139 = DIRECTION ( 'NONE',  ( -3.491481338843133355E-15, 1.224646799147353207E-16, -1.000000000000000000 ) ) ;
#140 = COORDINATED_UNIVERSAL_TIME_OFFSET ( 1, 0, .AHEAD. ) ;
#141 = LOCAL_TIME ( 7, 16, 27.00000000000000000, #130 ) ;
#142 = FACE_OUTER_BOUND ( 'NONE', #71, .T. ) ;
#143 = CYLINDRICAL_SURFACE ( 'NONE', #66, 0.2099999999999998535 ) ;
#144 = FACE_OUTER_BOUND ( 'NONE', #35, .T. ) ;
#145 = APPROVAL_PERSON_ORGANIZATION ( #107, #30, #34 ) ;
#146 = ADVANCED_FACE ( 'NONE', ( #144 ), #12, .T. ) ;
#147 = UNCERTAINTY_MEASURE_WITH_UNIT (LENGTH_MEASURE( 1.000000000000000082E-05 ), #217, 'distance_accuracy_value', 'NONE');
#148 = PERSON_AND_ORGANIZATION ( #131, #104 ) ;
#149 = AXIS2_PLACEMENT_3D ( 'NONE', #63, #60, #171 ) ;
#150 = EDGE_LOOP ( 'NONE', ( #218 ) ) ;
#151 = DIRECTION ( 'NONE',  ( 0.0000000000000000000, 1.000000000000000000, 0.0000000000000000000 ) ) ;
#152 = APPROVAL ( #127, 'UNSPECIFIED' ) ;
#153 = DIRECTION ( 'NONE',  ( -3.491481338843133355E-15, 1.224646799147353207E-16, -1.000000000000000000 ) ) ;
#154 = CC_DESIGN_SECURITY_CLASSIFICATION ( #19, ( #89 ) ) ;
#155 = EDGE_LOOP ( 'NONE', ( #177 ) ) ;
#156 = CARTESIAN_POINT ( 'NONE',  ( 6.982962677686266711E-15, 1.574747771794946588E-33, 2.000000000000000000 ) ) ;
#157 = VERTEX_POINT ( 'NONE', #207 ) ;
#158 = VERTEX_POINT ( 'NONE', #78 ) ;
#159 = CALENDAR_DATE ( 2021, 8, 10 ) ;
#160 = DIRECTION ( 'NONE',  ( 3.491481338843133355E-15, -1.224646799147353207E-16, 1.000000000000000000 ) ) ;
#161 = EDGE_CURVE ( 'NONE', #48, #48, #105, .T. ) ;
#162 = CC_DESIGN_PERSON_AND_ORGANIZATION_ASSIGNMENT ( #11, #219, ( #89 ) ) ;
#163 = APPROVAL_PERSON_ORGANIZATION ( #129, #152, #135 ) ;
#164 = DIRECTION ( 'NONE',  ( 0.0000000000000000000, 1.000000000000000000, 0.0000000000000000000 ) ) ;
#165 = PERSON_AND_ORGANIZATION_ROLE ( 'classification_officer' ) ;
#166 = ORIENTED_EDGE ( 'NONE', *, *, #106, .T. ) ;
#167 = ADVANCED_FACE ( 'NONE', ( #17 ), #209, .F. ) ;
#168 = APPROVAL_DATE_TIME ( #42, #30 ) ;
#169 = DIRECTION ( 'NONE',  ( -3.491481338843133355E-15, 1.224646799147353207E-16, -1.000000000000000000 ) ) ;
#170 = DIRECTION ( 'NONE',  ( 4.275831445896958607E-31, 1.000000000000000000, 1.224646799147353207E-16 ) ) ;
#171 = DIRECTION ( 'NONE',  ( -4.275831445896958607E-31, -1.000000000000000000, -1.224646799147353207E-16 ) ) ;
#172 = DATE_AND_TIME ( #126, #29 ) ;
#173 = APPROVAL_PERSON_ORGANIZATION ( #99, #198, #208 ) ;
#174 = DATE_AND_TIME ( #159, #124 ) ;
#175 = AXIS2_PLACEMENT_3D ( 'NONE', #186, #14, #170 ) ;
#176 = ORIENTED_EDGE ( 'NONE', *, *, #161, .T. ) ;
#177 = ORIENTED_EDGE ( 'NONE', *, *, #106, .F. ) ;
#178 = CARTESIAN_POINT ( 'NONE',  ( 1.043952920314096936E-13, -3.661693929450586610E-15, 29.90000000000000213 ) ) ;
#179 = DIRECTION ( 'NONE',  ( 0.0000000000000000000, -1.000000000000000000, 0.0000000000000000000 ) ) ;
#180 = CALENDAR_DATE ( 2021, 8, 10 ) ;
#181 = DIRECTION ( 'NONE',  ( 0.0000000000000000000, 1.000000000000000000, 0.0000000000000000000 ) ) ;
#182 = CONICAL_SURFACE ( 'NONE', #6, 0.2099999999999997702, 1.029744258676649871 ) ;
#183 = DIRECTION ( 'NONE',  ( 0.0000000000000000000, 1.000000000000000000, 0.0000000000000000000 ) ) ;
#184 = APPROVAL_DATE_TIME ( #172, #198 ) ;
#185 = ADVANCED_FACE ( 'NONE', ( #220, #24 ), #26, .T. ) ;
#186 = CARTESIAN_POINT ( 'NONE',  ( 0.0000000000000000000, 0.0000000000000000000, 0.0000000000000000000 ) ) ;
#187 = VERTEX_POINT ( 'NONE', #102 ) ;
#188 = ADVANCED_FACE ( 'NONE', ( #58, #142 ), #143, .T. ) ;
#189 = CIRCLE ( 'NONE', #88, 0.4999999999999991673 ) ;
#190 = CIRCLE ( 'NONE', #134, 0.2099999999999999367 ) ;
#191 = CONICAL_SURFACE ( 'NONE', #52, 0.3999999999999989675, 0.7853981633974694843 ) ;
#192 = CC_DESIGN_APPROVAL ( #152, ( #89 ) ) ;
#193 = DIRECTION ( 'NONE',  ( 0.0000000000000000000, 1.000000000000000000, 0.0000000000000000000 ) ) ;
#194 = CC_DESIGN_PERSON_AND_ORGANIZATION_ASSIGNMENT ( #148, #70, ( #90 ) ) ;
#195 = ORIENTED_EDGE ( 'NONE', *, *, #2, .F. ) ;
#196 = ORIENTED_EDGE ( 'NONE', *, *, #205, .F. ) ;
#197 = CIRCLE ( 'NONE', #80, 0.4999999999999966693 ) ;
#198 = APPROVAL ( #51, 'UNSPECIFIED' ) ;
#199 = EDGE_LOOP ( 'NONE', ( #74 ) ) ;
#200 = PERSON_AND_ORGANIZATION_ROLE ( 'creator' ) ;
#201 = CARTESIAN_POINT ( 'NONE',  ( 1.043952920314096936E-13, 0.4999999999999954481, 29.90000000000000213 ) ) ;
#202 = DIRECTION ( 'NONE',  ( 4.585547486636280678E-31, 1.000000000000000000, 1.290716872006554259E-16 ) ) ;
#203 = AXIS2_PLACEMENT_3D ( 'NONE', #39, #86, #50 ) ;
#204 = CALENDAR_DATE ( 2021, 8, 10 ) ;
#205 = EDGE_CURVE ( 'NONE', #187, #187, #190, .T. ) ;
#206 = VERTEX_POINT ( 'NONE', #201 ) ;
#207 = CARTESIAN_POINT ( 'NONE',  ( 4.405576641019009205E-16, 0.2099999999999997424, 0.1261807299957889150 ) ) ;
#208 = APPROVAL_ROLE ( '' ) ;
#209 = PLANE ( 'NONE',  #10 ) ;
#210 = APPROVAL_DATE_TIME ( #40, #152 ) ;
#211 = ADVANCED_BREP_SHAPE_REPRESENTATION ( '952678', ( #122, #116, #203 ), #49 ) ;
#212 = APPLICATION_CONTEXT ( 'configuration controlled 3d designs of mechanical parts and assemblies' ) ;
#213 = ADVANCED_FACE ( 'NONE', ( #28 ), #182, .T. ) ;
#214 = ORIENTED_EDGE ( 'NONE', *, *, #85, .T. ) ;
#215 = DIRECTION ( 'NONE',  ( 3.491481338843133355E-15, -1.224646799147353207E-16, 1.000000000000000000 ) ) ;
#216 = PRODUCT_DEFINITION_SHAPE ( 'NONE', 'NONE',  #119 ) ;
#217 =( LENGTH_UNIT ( ) NAMED_UNIT ( * ) SI_UNIT ( .MILLI., .METRE. ) );
#218 = ORIENTED_EDGE ( 'NONE', *, *, #2, .T. ) ;
#219 = PERSON_AND_ORGANIZATION_ROLE ( 'design_supplier' ) ;
#220 = FACE_OUTER_BOUND ( 'NONE', #111, .T. ) ;
#221 = CARTESIAN_POINT ( 'NONE',  ( 1.076177454525626749E-14, -3.774722380260637667E-16, 3.082294734194991115 ) ) ;
#222 = DIRECTION ( 'NONE',  ( -3.491481338843133355E-15, 1.224646799147353207E-16, -1.000000000000000000 ) ) ;
#223 = DATE_TIME_ROLE ( 'classification_date' ) ;
ENDSEC;
END-ISO-10303-21;
