ISO-10303-21;
HEADER;
FILE_DESCRIPTION (( 'STEP AP203' ),
    '1' );
FILE_NAME ('952677.step',
    '2021-10-08T05:16:26',
    ( '' ),
    ( '' ),
    'SwSTEP 2.0',
    'SolidWorks 2019',
    '' );
FILE_SCHEMA (( 'CONFIG_CONTROL_DESIGN' ));
ENDSEC;

DATA;
#1 = ADVANCED_FACE ( 'NONE', ( #109 ), #177, .F. ) ;
#2 = DIRECTION ( 'NONE',  ( -3.491481338843133355E-15, 1.224646799147353207E-16, -1.000000000000000000 ) ) ;
#3 = DIRECTION ( 'NONE',  ( -3.491481338843133355E-15, 1.224646799147353207E-16, -1.000000000000000000 ) ) ;
#4 = DESIGN_CONTEXT ( 'detailed design', #181, 'design' ) ;
#5 = DIRECTION ( 'NONE',  ( 3.491481338843133355E-15, -1.224646799147353207E-16, 1.000000000000000000 ) ) ;
#6 = APPROVAL_DATE_TIME ( #42, #216 ) ;
#7 = SECURITY_CLASSIFICATION_LEVEL ( 'unclassified' ) ;
#8 = CALENDAR_DATE ( 2021, 8, 10 ) ;
#9 = CARTESIAN_POINT ( 'NONE',  ( 6.982962677686265133E-15, 0.2049999999999997657, 1.999999999999999556 ) ) ;
#10 = ORIENTED_EDGE ( 'NONE', *, *, #111, .T. ) ;
#11 = AXIS2_PLACEMENT_3D ( 'NONE', #88, #2, #68 ) ;
#12 = LOCAL_TIME ( 7, 16, 26.00000000000000000, #94 ) ;
#13 = DATE_AND_TIME ( #100, #170 ) ;
#14 = DATE_TIME_ROLE ( 'classification_date' ) ;
#15 = APPROVAL_DATE_TIME ( #218, #169 ) ;
#16 = APPROVAL_PERSON_ORGANIZATION ( #129, #105, #72 ) ;
#17 = FACE_OUTER_BOUND ( 'NONE', #48, .T. ) ;
#18 = APPROVAL_ROLE ( '' ) ;
#19 = DIRECTION ( 'NONE',  ( 3.491481338843133355E-15, -1.224646799147353207E-16, 1.000000000000000000 ) ) ;
#20 = AXIS2_PLACEMENT_3D ( 'NONE', #25, #146, #96 ) ;
#21 = UNCERTAINTY_MEASURE_WITH_UNIT (LENGTH_MEASURE( 1.000000000000000082E-05 ), #211, 'distance_accuracy_value', 'NONE');
#22 = FACE_BOUND ( 'NONE', #166, .T. ) ;
#23 = AXIS2_PLACEMENT_3D ( 'NONE', #191, #3, #172 ) ;
#24 = CYLINDRICAL_SURFACE ( 'NONE', #50, 0.2049999999999998768 ) ;
#25 = CARTESIAN_POINT ( 'NONE',  ( 0.0000000000000000000, 0.0000000000000000000, 0.0000000000000000000 ) ) ;
#26 = PERSON_AND_ORGANIZATION_ROLE ( 'design_supplier' ) ;
#27 = PERSON_AND_ORGANIZATION ( #126, #57 ) ;
#28 = CC_DESIGN_PERSON_AND_ORGANIZATION_ASSIGNMENT ( #209, #26, ( #139 ) ) ;
#29 = ADVANCED_FACE ( 'NONE', ( #136, #174 ), #221, .T. ) ;
#30 = LOCAL_TIME ( 7, 16, 26.00000000000000000, #210 ) ;
#31 = PERSON_AND_ORGANIZATION ( #126, #57 ) ;
#32 = SHAPE_DEFINITION_REPRESENTATION ( #35, #71 ) ;
#33 = APPROVAL_STATUS ( 'not_yet_approved' ) ;
#34 = DIRECTION ( 'NONE',  ( -4.697390108261556073E-31, -1.000000000000000000, -1.322197771323787362E-16 ) ) ;
#35 = PRODUCT_DEFINITION_SHAPE ( 'NONE', 'NONE',  #37 ) ;
#36 = DIRECTION ( 'NONE',  ( 4.275831445896958607E-31, 1.000000000000000000, 1.224646799147353207E-16 ) ) ;
#37 = PRODUCT_DEFINITION ( 'UNKNOWN', '', #139, #4 ) ;
#38 = CONICAL_SURFACE ( 'NONE', #204, 0.4999999999999967804, 0.2617993877991427465 ) ;
#39 = CARTESIAN_POINT ( 'NONE',  ( 0.0000000000000000000, 0.0000000000000000000, 0.0000000000000000000 ) ) ;
#40 = CARTESIAN_POINT ( 'NONE',  ( 1.047444401652940007E-13, 2.999519565323652267E-33, 30.00000000000000000 ) ) ;
#41 = CARTESIAN_POINT ( 'NONE',  ( 6.982962677686266711E-15, 1.537253777228400730E-33, 2.000000000000000000 ) ) ;
#42 = DATE_AND_TIME ( #46, #12 ) ;
#43 =( NAMED_UNIT ( * ) SI_UNIT ( $, .STERADIAN. ) SOLID_ANGLE_UNIT ( ) );
#44 = CARTESIAN_POINT ( 'NONE',  ( 1.043952920314096936E-13, 0.4999999999999954481, 29.90000000000000213 ) ) ;
#45 = CIRCLE ( 'NONE', #217, 0.4999999999999991673 ) ;
#46 = CALENDAR_DATE ( 2021, 8, 10 ) ;
#47 = CARTESIAN_POINT ( 'NONE',  ( 1.082692647400747418E-14, 0.4999999999999963363, 3.100954988232835774 ) ) ;
#48 = EDGE_LOOP ( 'NONE', ( #58 ) ) ;
#49 = DIRECTION ( 'NONE',  ( -3.491481338843133355E-15, 1.224646799147353207E-16, -1.000000000000000000 ) ) ;
#50 = AXIS2_PLACEMENT_3D ( 'NONE', #39, #106, #36 ) ;
#51 = DIRECTION ( 'NONE',  ( -4.275831445896958607E-31, -1.000000000000000000, -1.224646799147353207E-16 ) ) ;
#52 = PLANE ( 'NONE',  #86 ) ;
#53 = FACE_OUTER_BOUND ( 'NONE', #131, .T. ) ;
#54 = DIRECTION ( 'NONE',  ( 0.0000000000000000000, 1.000000000000000000, 0.0000000000000000000 ) ) ;
#55 = VERTEX_POINT ( 'NONE', #9 ) ;
#56 = APPLICATION_PROTOCOL_DEFINITION ( 'international standard', 'config_control_design', 1994, #181 ) ;
#57 = ORGANIZATION ( 'UNSPECIFIED', 'UNSPECIFIED', '' ) ;
#58 = ORIENTED_EDGE ( 'NONE', *, *, #116, .T. ) ;
#59 = CC_DESIGN_DATE_AND_TIME_ASSIGNMENT ( #81, #153, ( #37 ) ) ;
#60 = ORIENTED_EDGE ( 'NONE', *, *, #147, .T. ) ;
#61 = ORIENTED_EDGE ( 'NONE', *, *, #213, .F. ) ;
#62 = CC_DESIGN_PERSON_AND_ORGANIZATION_ASSIGNMENT ( #163, #145, ( #139 ) ) ;
#63 = DIRECTION ( 'NONE',  ( -3.491481338843133355E-15, 1.224646799147353207E-16, -1.000000000000000000 ) ) ;
#64 = CARTESIAN_POINT ( 'NONE',  ( 6.982962677686265133E-15, -2.449293598294705921E-16, 1.999999999999999556 ) ) ;
#65 = LOCAL_TIME ( 7, 16, 26.00000000000000000, #161 ) ;
#66 = ADVANCED_FACE ( 'NONE', ( #125, #140 ), #24, .T. ) ;
#67 = CIRCLE ( 'NONE', #162, 0.2050000000000000155 ) ;
#68 = DIRECTION ( 'NONE',  ( 4.275831445896958607E-31, 1.000000000000000000, 1.224646799147352961E-16 ) ) ;
#69 = DIRECTION ( 'NONE',  ( 0.0000000000000000000, 1.000000000000000000, 0.0000000000000000000 ) ) ;
#70 = CARTESIAN_POINT ( 'NONE',  ( 6.982962677686266711E-15, 1.537253777228400730E-33, 2.000000000000000000 ) ) ;
#71 = ADVANCED_BREP_SHAPE_REPRESENTATION ( '952677', ( #113, #189, #20 ), #108 ) ;
#72 = APPROVAL_ROLE ( '' ) ;
#73 = ADVANCED_FACE ( 'NONE', ( #142, #22 ), #124, .T. ) ;
#74 = AXIS2_PLACEMENT_3D ( 'NONE', #41, #5, #104 ) ;
#75 = VERTEX_POINT ( 'NONE', #110 ) ;
#76 = PERSON_AND_ORGANIZATION ( #126, #57 ) ;
#77 = ORIENTED_EDGE ( 'NONE', *, *, #116, .F. ) ;
#78 = PERSON_AND_ORGANIZATION_ROLE ( 'design_owner' ) ;
#79 = AXIS2_PLACEMENT_3D ( 'NONE', #119, #160, #54 ) ;
#80 = EDGE_LOOP ( 'NONE', ( #215 ) ) ;
#81 = DATE_AND_TIME ( #130, #65 ) ;
#82 = ORIENTED_EDGE ( 'NONE', *, *, #213, .T. ) ;
#83 = EDGE_LOOP ( 'NONE', ( #115 ) ) ;
#84 = PERSON_AND_ORGANIZATION ( #126, #57 ) ;
#85 = CARTESIAN_POINT ( 'NONE',  ( 1.082692647400747418E-14, -3.797574600639360875E-16, 3.100954988232835774 ) ) ;
#86 = AXIS2_PLACEMENT_3D ( 'NONE', #40, #107, #175 ) ;
#87 = SECURITY_CLASSIFICATION ( '', '', #7 ) ;
#88 = CARTESIAN_POINT ( 'NONE',  ( 0.0000000000000000000, 0.0000000000000000000, 0.0000000000000000000 ) ) ;
#89 = PRODUCT_RELATED_PRODUCT_CATEGORY ( 'detail', '', ( #152 ) ) ;
#90 = CARTESIAN_POINT ( 'NONE',  ( 6.982962677686265133E-15, -2.449293598294705921E-16, 1.999999999999999556 ) ) ;
#91 = DIRECTION ( 'NONE',  ( -3.491481338843133355E-15, 1.224646799147353207E-16, -1.000000000000000000 ) ) ;
#92 = ADVANCED_FACE ( 'NONE', ( #193 ), #52, .F. ) ;
#93 = VERTEX_POINT ( 'NONE', #44 ) ;
#94 = COORDINATED_UNIVERSAL_TIME_OFFSET ( 1, 0, .AHEAD. ) ;
#95 = CARTESIAN_POINT ( 'NONE',  ( 4.300681959089985387E-16, 0.2049999999999997380, 0.1231764269006510731 ) ) ;
#96 = DIRECTION ( 'NONE',  ( 1.000000000000000000, 0.0000000000000000000, 0.0000000000000000000 ) ) ;
#97 =( NAMED_UNIT ( * ) PLANE_ANGLE_UNIT ( ) SI_UNIT ( $, .RADIAN. ) );
#98 = AXIS2_PLACEMENT_3D ( 'NONE', #101, #208, #34 ) ;
#99 = EDGE_LOOP ( 'NONE', ( #212 ) ) ;
#100 = CALENDAR_DATE ( 2021, 8, 10 ) ;
#101 = CARTESIAN_POINT ( 'NONE',  ( 4.300681959089984401E-16, -1.508476169342902479E-17, 0.1231764269006510454 ) ) ;
#102 = AXIS2_PLACEMENT_3D ( 'NONE', #70, #137, #51 ) ;
#103 = CC_DESIGN_PERSON_AND_ORGANIZATION_ASSIGNMENT ( #182, #78, ( #152 ) ) ;
#104 = DIRECTION ( 'NONE',  ( -4.275831445896958607E-31, -1.000000000000000000, -1.224646799147353207E-16 ) ) ;
#105 = APPROVAL ( #180, 'UNSPECIFIED' ) ;
#106 = DIRECTION ( 'NONE',  ( -3.491481338843133355E-15, 1.224646799147353207E-16, -1.000000000000000000 ) ) ;
#107 = DIRECTION ( 'NONE',  ( -3.491481338843133355E-15, 1.224646799147353207E-16, -1.000000000000000000 ) ) ;
#108 =( GEOMETRIC_REPRESENTATION_CONTEXT ( 3 ) GLOBAL_UNCERTAINTY_ASSIGNED_CONTEXT ( ( #21 ) ) GLOBAL_UNIT_ASSIGNED_CONTEXT ( ( #211, #97, #43 ) ) REPRESENTATION_CONTEXT ( 'NONE', 'WORKASPACE' ) );
#109 = FACE_OUTER_BOUND ( 'NONE', #83, .T. ) ;
#110 = CARTESIAN_POINT ( 'NONE',  ( 6.982962677686265133E-15, 0.2049999999999997657, 1.999999999999999556 ) ) ;
#111 = EDGE_CURVE ( 'NONE', #55, #55, #176, .T. ) ;
#112 = VERTEX_POINT ( 'NONE', #199 ) ;
#113 = MANIFOLD_SOLID_BREP ( 'Corps-Déplacer/Copier1[1]', #222 ) ;
#114 = CIRCLE ( 'NONE', #23, 0.2049999999999997657 ) ;
#115 = ORIENTED_EDGE ( 'NONE', *, *, #133, .T. ) ;
#116 = EDGE_CURVE ( 'NONE', #200, #200, #114, .T. ) ;
#117 = COORDINATED_UNIVERSAL_TIME_OFFSET ( 1, 0, .AHEAD. ) ;
#118 = EDGE_LOOP ( 'NONE', ( #60 ) ) ;
#119 = CARTESIAN_POINT ( 'NONE',  ( 1.082692647400747418E-14, -3.797574600639360875E-16, 3.100954988232835774 ) ) ;
#120 = DIRECTION ( 'NONE',  ( 0.0000000000000000000, 1.000000000000000000, 0.0000000000000000000 ) ) ;
#121 = ORIENTED_EDGE ( 'NONE', *, *, #133, .F. ) ;
#122 = PLANE ( 'NONE',  #74 ) ;
#123 = CC_DESIGN_PERSON_AND_ORGANIZATION_ASSIGNMENT ( #27, #127, ( #37 ) ) ;
#124 = CONICAL_SURFACE ( 'NONE', #214, 0.3999999999999989675, 0.7853981633974694843 ) ;
#125 = FACE_OUTER_BOUND ( 'NONE', #206, .T. ) ;
#126 = PERSON ( 'UNSPECIFIED', 'UNSPECIFIED', 'UNSPECIFIED', ('UNSPECIFIED'), ('UNSPECIFIED'), ('UNSPECIFIED') ) ;
#127 = PERSON_AND_ORGANIZATION_ROLE ( 'creator' ) ;
#128 = APPROVAL_DATE_TIME ( #195, #105 ) ;
#129 = PERSON_AND_ORGANIZATION ( #126, #57 ) ;
#130 = CALENDAR_DATE ( 2021, 8, 10 ) ;
#131 = EDGE_LOOP ( 'NONE', ( #201 ) ) ;
#132 = APPLICATION_CONTEXT ( 'configuration controlled 3d designs of mechanical parts and assemblies' ) ;
#133 = EDGE_CURVE ( 'NONE', #75, #75, #67, .T. ) ;
#134 = EDGE_LOOP ( 'NONE', ( #10 ) ) ;
#135 = LOCAL_TIME ( 7, 16, 26.00000000000000000, #220 ) ;
#136 = FACE_OUTER_BOUND ( 'NONE', #99, .T. ) ;
#137 = DIRECTION ( 'NONE',  ( 3.491481338843133355E-15, -1.224646799147353207E-16, 1.000000000000000000 ) ) ;
#138 = CC_DESIGN_SECURITY_CLASSIFICATION ( #87, ( #139 ) ) ;
#139 = PRODUCT_DEFINITION_FORMATION_WITH_SPECIFIED_SOURCE ( 'ANY', '', #152, .NOT_KNOWN. ) ;
#140 = FACE_OUTER_BOUND ( 'NONE', #134, .T. ) ;
#141 = ADVANCED_FACE ( 'NONE', ( #53 ), #122, .T. ) ;
#142 = FACE_OUTER_BOUND ( 'NONE', #80, .T. ) ;
#143 = DIRECTION ( 'NONE',  ( 0.0000000000000000000, 1.000000000000000000, 0.0000000000000000000 ) ) ;
#144 = CC_DESIGN_APPROVAL ( #105, ( #37 ) ) ;
#145 = PERSON_AND_ORGANIZATION_ROLE ( 'creator' ) ;
#146 = DIRECTION ( 'NONE',  ( 0.0000000000000000000, 0.0000000000000000000, 1.000000000000000000 ) ) ;
#147 = EDGE_CURVE ( 'NONE', #196, #196, #158, .T. ) ;
#148 = APPROVAL_STATUS ( 'not_yet_approved' ) ;
#149 = ORIENTED_EDGE ( 'NONE', *, *, #190, .T. ) ;
#150 = CLOSED_SHELL ( 'NONE', ( #165, #66, #141 ) ) ;
#151 = AXIS2_PLACEMENT_3D ( 'NONE', #156, #203, #120 ) ;
#152 = PRODUCT ( '952677', '952677', '', ( #164 ) ) ;
#153 = DATE_TIME_ROLE ( 'creation_date' ) ;
#154 = AXIS2_PLACEMENT_3D ( 'NONE', #90, #207, #159 ) ;
#155 = DIRECTION ( 'NONE',  ( 0.0000000000000000000, -1.000000000000000000, 0.0000000000000000000 ) ) ;
#156 = CARTESIAN_POINT ( 'NONE',  ( 1.047444401652940007E-13, -3.673940397442059178E-15, 30.00000000000000000 ) ) ;
#157 = EDGE_LOOP ( 'NONE', ( #149 ) ) ;
#158 = CIRCLE ( 'NONE', #79, 0.4999999999999967804 ) ;
#159 = DIRECTION ( 'NONE',  ( 0.0000000000000000000, 1.000000000000000000, 0.0000000000000000000 ) ) ;
#160 = DIRECTION ( 'NONE',  ( -3.491481338843133355E-15, 1.224646799147353207E-16, -1.000000000000000000 ) ) ;
#161 = COORDINATED_UNIVERSAL_TIME_OFFSET ( 1, 0, .AHEAD. ) ;
#162 = AXIS2_PLACEMENT_3D ( 'NONE', #64, #49, #69 ) ;
#163 = PERSON_AND_ORGANIZATION ( #126, #57 ) ;
#164 = MECHANICAL_CONTEXT ( 'NONE', #132, 'mechanical' ) ;
#165 = ADVANCED_FACE ( 'NONE', ( #17 ), #223, .T. ) ;
#166 = EDGE_LOOP ( 'NONE', ( #82 ) ) ;
#167 = CALENDAR_DATE ( 2021, 8, 10 ) ;
#168 = PERSON_AND_ORGANIZATION_ROLE ( 'classification_officer' ) ;
#169 = APPROVAL ( #33, 'UNSPECIFIED' ) ;
#170 = LOCAL_TIME ( 7, 16, 26.00000000000000000, #117 ) ;
#171 = FACE_BOUND ( 'NONE', #187, .T. ) ;
#172 = DIRECTION ( 'NONE',  ( 4.697390108261556073E-31, 1.000000000000000000, 1.322197771323787362E-16 ) ) ;
#173 = APPROVAL_PERSON_ORGANIZATION ( #84, #169, #18 ) ;
#174 = FACE_OUTER_BOUND ( 'NONE', #157, .T. ) ;
#175 = DIRECTION ( 'NONE',  ( 4.275831445896958607E-31, 1.000000000000000000, 1.224646799147353207E-16 ) ) ;
#176 = CIRCLE ( 'NONE', #154, 0.2050000000000000155 ) ;
#177 = PLANE ( 'NONE',  #102 ) ;
#178 = APPROVAL_ROLE ( '' ) ;
#179 = CIRCLE ( 'NONE', #151, 0.3999999999999989675 ) ;
#180 = APPROVAL_STATUS ( 'not_yet_approved' ) ;
#181 = APPLICATION_CONTEXT ( 'configuration controlled 3d designs of mechanical parts and assemblies' ) ;
#182 = PERSON_AND_ORGANIZATION ( #126, #57 ) ;
#183 = ADVANCED_FACE ( 'NONE', ( #171, #188 ), #38, .T. ) ;
#184 = EDGE_LOOP ( 'NONE', ( #61 ) ) ;
#185 = APPROVAL_PERSON_ORGANIZATION ( #76, #216, #178 ) ;
#186 = CC_DESIGN_APPROVAL ( #216, ( #139 ) ) ;
#187 = EDGE_LOOP ( 'NONE', ( #121 ) ) ;
#188 = FACE_OUTER_BOUND ( 'NONE', #118, .T. ) ;
#189 = MANIFOLD_SOLID_BREP ( 'Corps-Déplacer/Copier1[2]', #150 ) ;
#190 = EDGE_CURVE ( 'NONE', #93, #93, #45, .T. ) ;
#191 = CARTESIAN_POINT ( 'NONE',  ( 4.300681959089984401E-16, -1.508476169342902479E-17, 0.1231764269006510454 ) ) ;
#192 = CARTESIAN_POINT ( 'NONE',  ( 1.047444401652940007E-13, -3.673940397442059178E-15, 30.00000000000000000 ) ) ;
#193 = FACE_OUTER_BOUND ( 'NONE', #184, .T. ) ;
#194 = APPLICATION_PROTOCOL_DEFINITION ( 'international standard', 'config_control_design', 1994, #132 ) ;
#195 = DATE_AND_TIME ( #8, #30 ) ;
#196 = VERTEX_POINT ( 'NONE', #47 ) ;
#197 = CC_DESIGN_APPROVAL ( #169, ( #87 ) ) ;
#198 = CC_DESIGN_DATE_AND_TIME_ASSIGNMENT ( #13, #14, ( #87 ) ) ;
#199 = CARTESIAN_POINT ( 'NONE',  ( 1.047444401652940007E-13, 0.3999999999999953038, 30.00000000000000000 ) ) ;
#200 = VERTEX_POINT ( 'NONE', #95 ) ;
#201 = ORIENTED_EDGE ( 'NONE', *, *, #111, .F. ) ;
#202 = DIRECTION ( 'NONE',  ( 0.0000000000000000000, 1.000000000000000000, 0.0000000000000000000 ) ) ;
#203 = DIRECTION ( 'NONE',  ( -3.491481338843133355E-15, 1.224646799147353207E-16, -1.000000000000000000 ) ) ;
#204 = AXIS2_PLACEMENT_3D ( 'NONE', #85, #19, #155 ) ;
#205 = CC_DESIGN_PERSON_AND_ORGANIZATION_ASSIGNMENT ( #31, #168, ( #87 ) ) ;
#206 = EDGE_LOOP ( 'NONE', ( #77 ) ) ;
#207 = DIRECTION ( 'NONE',  ( -3.491481338843133355E-15, 1.224646799147353207E-16, -1.000000000000000000 ) ) ;
#208 = DIRECTION ( 'NONE',  ( 3.491481338843133355E-15, -1.224646799147353207E-16, 1.000000000000000000 ) ) ;
#209 = PERSON_AND_ORGANIZATION ( #126, #57 ) ;
#210 = COORDINATED_UNIVERSAL_TIME_OFFSET ( 1, 0, .AHEAD. ) ;
#211 =( LENGTH_UNIT ( ) NAMED_UNIT ( * ) SI_UNIT ( .MILLI., .METRE. ) );
#212 = ORIENTED_EDGE ( 'NONE', *, *, #147, .F. ) ;
#213 = EDGE_CURVE ( 'NONE', #112, #112, #179, .T. ) ;
#214 = AXIS2_PLACEMENT_3D ( 'NONE', #192, #91, #143 ) ;
#215 = ORIENTED_EDGE ( 'NONE', *, *, #190, .F. ) ;
#216 = APPROVAL ( #148, 'UNSPECIFIED' ) ;
#217 = AXIS2_PLACEMENT_3D ( 'NONE', #219, #63, #202 ) ;
#218 = DATE_AND_TIME ( #167, #135 ) ;
#219 = CARTESIAN_POINT ( 'NONE',  ( 1.043952920314096936E-13, -3.661693929450586610E-15, 29.90000000000000213 ) ) ;
#220 = COORDINATED_UNIVERSAL_TIME_OFFSET ( 1, 0, .AHEAD. ) ;
#221 = CYLINDRICAL_SURFACE ( 'NONE', #11, 0.4999999999999979461 ) ;
#222 = CLOSED_SHELL ( 'NONE', ( #1, #183, #29, #73, #92 ) ) ;
#223 = CONICAL_SURFACE ( 'NONE', #98, 0.2049999999999997657, 1.029744258676649871 ) ;
ENDSEC;
END-ISO-10303-21;
