ISO-10303-21;
HEADER;
FILE_DESCRIPTION (( 'STEP AP203' ),
    '1' );
FILE_NAME ('952676.step',
    '2021-10-08T05:16:25',
    ( '' ),
    ( '' ),
    'SwSTEP 2.0',
    'SolidWorks 2019',
    '' );
FILE_SCHEMA (( 'CONFIG_CONTROL_DESIGN' ));
ENDSEC;

DATA;
#1 = APPROVAL ( #31, 'UNSPECIFIED' ) ;
#2 = DESIGN_CONTEXT ( 'detailed design', #167, 'design' ) ;
#3 = DIRECTION ( 'NONE',  ( 3.491481338843133355E-15, -1.224646799147353207E-16, 1.000000000000000000 ) ) ;
#4 = DIRECTION ( 'NONE',  ( -3.491481338843133355E-15, 1.224646799147353207E-16, -1.000000000000000000 ) ) ;
#5 = CIRCLE ( 'NONE', #90, 0.3999999999999989675 ) ;
#6 = DIRECTION ( 'NONE',  ( 0.0000000000000000000, 1.000000000000000000, 0.0000000000000000000 ) ) ;
#7 = ORIENTED_EDGE ( 'NONE', *, *, #32, .T. ) ;
#8 = ORIENTED_EDGE ( 'NONE', *, *, #135, .T. ) ;
#9 = CARTESIAN_POINT ( 'NONE',  ( 1.089207840275868087E-14, 0.4999999999999963363, 3.119615242270680433 ) ) ;
#10 = DIRECTION ( 'NONE',  ( -3.491481338843133355E-15, 1.224646799147353207E-16, -1.000000000000000000 ) ) ;
#11 = CC_DESIGN_PERSON_AND_ORGANIZATION_ASSIGNMENT ( #171, #22, ( #44 ) ) ;
#12 = PERSON_AND_ORGANIZATION ( #184, #116 ) ;
#13 = ADVANCED_BREP_SHAPE_REPRESENTATION ( '952676', ( #187, #34, #17 ), #40 ) ;
#14 = VERTEX_POINT ( 'NONE', #219 ) ;
#15 = PERSON_AND_ORGANIZATION_ROLE ( 'classification_officer' ) ;
#16 = UNCERTAINTY_MEASURE_WITH_UNIT (LENGTH_MEASURE( 1.000000000000000082E-05 ), #92, 'distance_accuracy_value', 'NONE');
#17 = AXIS2_PLACEMENT_3D ( 'NONE', #76, #113, #94 ) ;
#18 = DATE_AND_TIME ( #208, #42 ) ;
#19 = CALENDAR_DATE ( 2021, 8, 10 ) ;
#20 = EDGE_CURVE ( 'NONE', #49, #49, #25, .T. ) ;
#21 = DIRECTION ( 'NONE',  ( 0.0000000000000000000, 1.000000000000000000, 0.0000000000000000000 ) ) ;
#22 = PERSON_AND_ORGANIZATION_ROLE ( 'creator' ) ;
#23 = FACE_OUTER_BOUND ( 'NONE', #199, .T. ) ;
#24 = DIRECTION ( 'NONE',  ( -3.491481338843133355E-15, 1.224646799147353207E-16, -1.000000000000000000 ) ) ;
#25 = CIRCLE ( 'NONE', #189, 0.2000000000000000111 ) ;
#26 = CYLINDRICAL_SURFACE ( 'NONE', #217, 0.4999999999999979461 ) ;
#27 = EDGE_LOOP ( 'NONE', ( #213 ) ) ;
#28 = AXIS2_PLACEMENT_3D ( 'NONE', #91, #112, #79 ) ;
#29 = VERTEX_POINT ( 'NONE', #147 ) ;
#30 = DIRECTION ( 'NONE',  ( -4.814824860968093136E-31, -1.000000000000000000, -1.355252715606881529E-16 ) ) ;
#31 = APPROVAL_STATUS ( 'not_yet_approved' ) ;
#32 = EDGE_CURVE ( 'NONE', #151, #151, #131, .T. ) ;
#33 = CC_DESIGN_DATE_AND_TIME_ASSIGNMENT ( #67, #123, ( #99 ) ) ;
#34 = MANIFOLD_SOLID_BREP ( 'Corps-Déplacer/Copier1[2]', #36 ) ;
#35 = SECURITY_CLASSIFICATION_LEVEL ( 'unclassified' ) ;
#36 = CLOSED_SHELL ( 'NONE', ( #201, #80, #142 ) ) ;
#37 = PERSON_AND_ORGANIZATION_ROLE ( 'design_supplier' ) ;
#38 = EDGE_LOOP ( 'NONE', ( #211 ) ) ;
#39 = COORDINATED_UNIVERSAL_TIME_OFFSET ( 1, 0, .AHEAD. ) ;
#40 =( GEOMETRIC_REPRESENTATION_CONTEXT ( 3 ) GLOBAL_UNCERTAINTY_ASSIGNED_CONTEXT ( ( #16 ) ) GLOBAL_UNIT_ASSIGNED_CONTEXT ( ( #92, #146, #221 ) ) REPRESENTATION_CONTEXT ( 'NONE', 'WORKASPACE' ) );
#41 = DIRECTION ( 'NONE',  ( -3.491481338843133355E-15, 1.224646799147353207E-16, -1.000000000000000000 ) ) ;
#42 = LOCAL_TIME ( 7, 16, 25.00000000000000000, #39 ) ;
#43 = PLANE ( 'NONE',  #139 ) ;
#44 = PRODUCT_DEFINITION ( 'UNKNOWN', '', #72, #2 ) ;
#45 = ORIENTED_EDGE ( 'NONE', *, *, #32, .F. ) ;
#46 = CARTESIAN_POINT ( 'NONE',  ( 4.195787277160963542E-16, 0.1999999999999998168, 0.1201721238055133006 ) ) ;
#47 = PERSON_AND_ORGANIZATION_ROLE ( 'design_owner' ) ;
#48 = APPROVAL_PERSON_ORGANIZATION ( #138, #114, #118 ) ;
#49 = VERTEX_POINT ( 'NONE', #220 ) ;
#50 = PERSON_AND_ORGANIZATION ( #184, #116 ) ;
#51 = COORDINATED_UNIVERSAL_TIME_OFFSET ( 1, 0, .AHEAD. ) ;
#52 = COORDINATED_UNIVERSAL_TIME_OFFSET ( 1, 0, .AHEAD. ) ;
#53 = LOCAL_TIME ( 7, 16, 25.00000000000000000, #119 ) ;
#54 = EDGE_LOOP ( 'NONE', ( #177 ) ) ;
#55 = ORIENTED_EDGE ( 'NONE', *, *, #20, .F. ) ;
#56 = APPROVAL_ROLE ( '' ) ;
#57 = ORIENTED_EDGE ( 'NONE', *, *, #135, .F. ) ;
#58 = AXIS2_PLACEMENT_3D ( 'NONE', #122, #143, #216 ) ;
#59 = DIRECTION ( 'NONE',  ( -3.491481338843133355E-15, 1.224646799147353207E-16, -1.000000000000000000 ) ) ;
#60 = DIRECTION ( 'NONE',  ( 0.0000000000000000000, 1.000000000000000000, 0.0000000000000000000 ) ) ;
#61 = PRODUCT_RELATED_PRODUCT_CATEGORY ( 'detail', '', ( #95 ) ) ;
#62 = CC_DESIGN_APPROVAL ( #1, ( #44 ) ) ;
#63 = VERTEX_POINT ( 'NONE', #46 ) ;
#64 = DIRECTION ( 'NONE',  ( 3.491481338843133355E-15, -1.224646799147353207E-16, 1.000000000000000000 ) ) ;
#65 = AXIS2_PLACEMENT_3D ( 'NONE', #84, #41, #107 ) ;
#66 = CALENDAR_DATE ( 2021, 8, 10 ) ;
#67 = DATE_AND_TIME ( #66, #198 ) ;
#68 = DIRECTION ( 'NONE',  ( -4.275831445896958607E-31, -1.000000000000000000, -1.224646799147353207E-16 ) ) ;
#69 = FACE_OUTER_BOUND ( 'NONE', #103, .T. ) ;
#70 = CYLINDRICAL_SURFACE ( 'NONE', #58, 0.1999999999999999278 ) ;
#71 = FACE_OUTER_BOUND ( 'NONE', #54, .T. ) ;
#72 = PRODUCT_DEFINITION_FORMATION_WITH_SPECIFIED_SOURCE ( 'ANY', '', #95, .NOT_KNOWN. ) ;
#73 = EDGE_LOOP ( 'NONE', ( #156 ) ) ;
#74 = APPLICATION_PROTOCOL_DEFINITION ( 'international standard', 'config_control_design', 1994, #154 ) ;
#75 = CC_DESIGN_PERSON_AND_ORGANIZATION_ASSIGNMENT ( #12, #47, ( #95 ) ) ;
#76 = CARTESIAN_POINT ( 'NONE',  ( 0.0000000000000000000, 0.0000000000000000000, 0.0000000000000000000 ) ) ;
#77 = CARTESIAN_POINT ( 'NONE',  ( 1.089207840275868087E-14, -3.820426821018084083E-16, 3.119615242270680433 ) ) ;
#78 = CONICAL_SURFACE ( 'NONE', #127, 0.3999999999999989675, 0.7853981633974694843 ) ;
#79 = DIRECTION ( 'NONE',  ( 0.0000000000000000000, 1.000000000000000000, 0.0000000000000000000 ) ) ;
#80 = ADVANCED_FACE ( 'NONE', ( #71, #23 ), #70, .T. ) ;
#81 = APPLICATION_PROTOCOL_DEFINITION ( 'international standard', 'config_control_design', 1994, #167 ) ;
#82 = CIRCLE ( 'NONE', #132, 0.1999999999999998446 ) ;
#83 = SHAPE_DEFINITION_REPRESENTATION ( #153, #13 ) ;
#84 = CARTESIAN_POINT ( 'NONE',  ( 1.047444401652940007E-13, 2.999519565323652267E-33, 30.00000000000000000 ) ) ;
#85 = PERSON_AND_ORGANIZATION ( #184, #116 ) ;
#86 = EDGE_LOOP ( 'NONE', ( #8 ) ) ;
#87 = APPROVAL ( #140, 'UNSPECIFIED' ) ;
#88 = CARTESIAN_POINT ( 'NONE',  ( 1.043952920314096936E-13, -3.661693929450586610E-15, 29.90000000000000213 ) ) ;
#89 = CARTESIAN_POINT ( 'NONE',  ( 1.089207840275868087E-14, -3.820426821018084083E-16, 3.119615242270680433 ) ) ;
#90 = AXIS2_PLACEMENT_3D ( 'NONE', #144, #59, #60 ) ;
#91 = CARTESIAN_POINT ( 'NONE',  ( 6.982962677686265133E-15, -2.449293598294705921E-16, 1.999999999999999556 ) ) ;
#92 =( LENGTH_UNIT ( ) NAMED_UNIT ( * ) SI_UNIT ( .MILLI., .METRE. ) );
#93 = FACE_BOUND ( 'NONE', #86, .T. ) ;
#94 = DIRECTION ( 'NONE',  ( 1.000000000000000000, 0.0000000000000000000, 0.0000000000000000000 ) ) ;
#95 = PRODUCT ( '952676', '952676', '', ( #222 ) ) ;
#96 = EDGE_CURVE ( 'NONE', #183, #183, #161, .T. ) ;
#97 = PERSON_AND_ORGANIZATION ( #184, #116 ) ;
#98 = PERSON_AND_ORGANIZATION ( #184, #116 ) ;
#99 = SECURITY_CLASSIFICATION ( '', '', #35 ) ;
#100 = ADVANCED_FACE ( 'NONE', ( #69 ), #129, .F. ) ;
#101 = DATE_AND_TIME ( #19, #212 ) ;
#102 = DATE_AND_TIME ( #192, #169 ) ;
#103 = EDGE_LOOP ( 'NONE', ( #57 ) ) ;
#104 = DATE_AND_TIME ( #194, #53 ) ;
#105 = ADVANCED_FACE ( 'NONE', ( #176, #157 ), #26, .T. ) ;
#106 = EDGE_LOOP ( 'NONE', ( #45 ) ) ;
#107 = DIRECTION ( 'NONE',  ( 4.275831445896958607E-31, 1.000000000000000000, 1.224646799147353207E-16 ) ) ;
#108 = DIRECTION ( 'NONE',  ( -3.491481338843133355E-15, 1.224646799147353207E-16, -1.000000000000000000 ) ) ;
#109 = ORIENTED_EDGE ( 'NONE', *, *, #191, .T. ) ;
#110 = CC_DESIGN_PERSON_AND_ORGANIZATION_ASSIGNMENT ( #50, #37, ( #72 ) ) ;
#111 = FACE_OUTER_BOUND ( 'NONE', #106, .T. ) ;
#112 = DIRECTION ( 'NONE',  ( -3.491481338843133355E-15, 1.224646799147353207E-16, -1.000000000000000000 ) ) ;
#113 = DIRECTION ( 'NONE',  ( 0.0000000000000000000, 0.0000000000000000000, 1.000000000000000000 ) ) ;
#114 = APPROVAL ( #214, 'UNSPECIFIED' ) ;
#115 = CARTESIAN_POINT ( 'NONE',  ( 4.195787277160962556E-16, -1.471684067651612746E-17, 0.1201721238055132729 ) ) ;
#116 = ORGANIZATION ( 'UNSPECIFIED', 'UNSPECIFIED', '' ) ;
#117 = CARTESIAN_POINT ( 'NONE',  ( 1.043952920314096936E-13, 0.4999999999999954481, 29.90000000000000213 ) ) ;
#118 = APPROVAL_ROLE ( '' ) ;
#119 = COORDINATED_UNIVERSAL_TIME_OFFSET ( 1, 0, .AHEAD. ) ;
#120 = CIRCLE ( 'NONE', #28, 0.2000000000000000111 ) ;
#121 = DATE_TIME_ROLE ( 'creation_date' ) ;
#122 = CARTESIAN_POINT ( 'NONE',  ( 0.0000000000000000000, 0.0000000000000000000, 0.0000000000000000000 ) ) ;
#123 = DATE_TIME_ROLE ( 'classification_date' ) ;
#124 = ORIENTED_EDGE ( 'NONE', *, *, #96, .T. ) ;
#125 = APPROVAL_DATE_TIME ( #18, #114 ) ;
#126 = EDGE_LOOP ( 'NONE', ( #124 ) ) ;
#127 = AXIS2_PLACEMENT_3D ( 'NONE', #166, #10, #180 ) ;
#128 = FACE_OUTER_BOUND ( 'NONE', #158, .T. ) ;
#129 = PLANE ( 'NONE',  #65 ) ;
#130 = DIRECTION ( 'NONE',  ( -3.491481338843133355E-15, 1.224646799147353207E-16, -1.000000000000000000 ) ) ;
#131 = CIRCLE ( 'NONE', #133, 0.4999999999999991673 ) ;
#132 = AXIS2_PLACEMENT_3D ( 'NONE', #202, #130, #206 ) ;
#133 = AXIS2_PLACEMENT_3D ( 'NONE', #88, #108, #21 ) ;
#134 = PLANE ( 'NONE',  #178 ) ;
#135 = EDGE_CURVE ( 'NONE', #29, #29, #5, .T. ) ;
#136 = DIRECTION ( 'NONE',  ( 3.491481338843133355E-15, -1.224646799147353207E-16, 1.000000000000000000 ) ) ;
#137 = DIRECTION ( 'NONE',  ( 3.491481338843133355E-15, -1.224646799147353207E-16, 1.000000000000000000 ) ) ;
#138 = PERSON_AND_ORGANIZATION ( #184, #116 ) ;
#139 = AXIS2_PLACEMENT_3D ( 'NONE', #200, #3, #68 ) ;
#140 = APPROVAL_STATUS ( 'not_yet_approved' ) ;
#141 = FACE_BOUND ( 'NONE', #73, .T. ) ;
#142 = ADVANCED_FACE ( 'NONE', ( #128 ), #43, .T. ) ;
#143 = DIRECTION ( 'NONE',  ( -3.491481338843133355E-15, 1.224646799147353207E-16, -1.000000000000000000 ) ) ;
#144 = CARTESIAN_POINT ( 'NONE',  ( 1.047444401652940007E-13, -3.673940397442059178E-15, 30.00000000000000000 ) ) ;
#145 = CC_DESIGN_PERSON_AND_ORGANIZATION_ASSIGNMENT ( #85, #15, ( #99 ) ) ;
#146 =( NAMED_UNIT ( * ) PLANE_ANGLE_UNIT ( ) SI_UNIT ( $, .RADIAN. ) );
#147 = CARTESIAN_POINT ( 'NONE',  ( 1.047444401652940007E-13, 0.3999999999999953038, 30.00000000000000000 ) ) ;
#148 = ADVANCED_FACE ( 'NONE', ( #141, #193 ), #175, .T. ) ;
#149 = APPROVAL_PERSON_ORGANIZATION ( #97, #1, #56 ) ;
#150 = FACE_OUTER_BOUND ( 'NONE', #38, .T. ) ;
#151 = VERTEX_POINT ( 'NONE', #117 ) ;
#152 = PERSON_AND_ORGANIZATION ( #184, #116 ) ;
#153 = PRODUCT_DEFINITION_SHAPE ( 'NONE', 'NONE',  #44 ) ;
#154 = APPLICATION_CONTEXT ( 'configuration controlled 3d designs of mechanical parts and assemblies' ) ;
#155 = CC_DESIGN_SECURITY_CLASSIFICATION ( #99, ( #72 ) ) ;
#156 = ORIENTED_EDGE ( 'NONE', *, *, #196, .F. ) ;
#157 = FACE_OUTER_BOUND ( 'NONE', #218, .T. ) ;
#158 = EDGE_LOOP ( 'NONE', ( #55 ) ) ;
#159 = DIRECTION ( 'NONE',  ( 4.275831445896958607E-31, 1.000000000000000000, 1.224646799147352961E-16 ) ) ;
#160 = CARTESIAN_POINT ( 'NONE',  ( 0.0000000000000000000, 0.0000000000000000000, 0.0000000000000000000 ) ) ;
#161 = CIRCLE ( 'NONE', #223, 0.4999999999999967804 ) ;
#162 = CC_DESIGN_DATE_AND_TIME_ASSIGNMENT ( #104, #121, ( #44 ) ) ;
#163 = DIRECTION ( 'NONE',  ( -4.275831445896958607E-31, -1.000000000000000000, -1.224646799147353207E-16 ) ) ;
#164 = CC_DESIGN_APPROVAL ( #87, ( #99 ) ) ;
#165 = APPROVAL_PERSON_ORGANIZATION ( #152, #87, #207 ) ;
#166 = CARTESIAN_POINT ( 'NONE',  ( 1.047444401652940007E-13, -3.673940397442059178E-15, 30.00000000000000000 ) ) ;
#167 = APPLICATION_CONTEXT ( 'configuration controlled 3d designs of mechanical parts and assemblies' ) ;
#168 = ADVANCED_FACE ( 'NONE', ( #111, #93 ), #78, .T. ) ;
#169 = LOCAL_TIME ( 7, 16, 25.00000000000000000, #173 ) ;
#170 = PERSON_AND_ORGANIZATION_ROLE ( 'creator' ) ;
#171 = PERSON_AND_ORGANIZATION ( #184, #116 ) ;
#172 = CARTESIAN_POINT ( 'NONE',  ( 6.982962677686265133E-15, -2.449293598294705921E-16, 1.999999999999999556 ) ) ;
#173 = COORDINATED_UNIVERSAL_TIME_OFFSET ( 1, 0, .AHEAD. ) ;
#174 = DIRECTION ( 'NONE',  ( -3.491481338843133355E-15, 1.224646799147353207E-16, -1.000000000000000000 ) ) ;
#175 = CONICAL_SURFACE ( 'NONE', #209, 0.4999999999999967804, 0.2617993877991428020 ) ;
#176 = FACE_OUTER_BOUND ( 'NONE', #27, .T. ) ;
#177 = ORIENTED_EDGE ( 'NONE', *, *, #191, .F. ) ;
#178 = AXIS2_PLACEMENT_3D ( 'NONE', #181, #137, #163 ) ;
#179 = DIRECTION ( 'NONE',  ( 0.0000000000000000000, -1.000000000000000000, 0.0000000000000000000 ) ) ;
#180 = DIRECTION ( 'NONE',  ( 0.0000000000000000000, 1.000000000000000000, 0.0000000000000000000 ) ) ;
#181 = CARTESIAN_POINT ( 'NONE',  ( 6.982962677686266711E-15, 1.499759782661854016E-33, 2.000000000000000000 ) ) ;
#182 = CC_DESIGN_PERSON_AND_ORGANIZATION_ASSIGNMENT ( #98, #170, ( #72 ) ) ;
#183 = VERTEX_POINT ( 'NONE', #9 ) ;
#184 = PERSON ( 'UNSPECIFIED', 'UNSPECIFIED', 'UNSPECIFIED', ('UNSPECIFIED'), ('UNSPECIFIED'), ('UNSPECIFIED') ) ;
#185 = ADVANCED_FACE ( 'NONE', ( #150 ), #134, .F. ) ;
#186 = AXIS2_PLACEMENT_3D ( 'NONE', #115, #64, #30 ) ;
#187 = MANIFOLD_SOLID_BREP ( 'Corps-Déplacer/Copier1[1]', #203 ) ;
#188 = APPROVAL_DATE_TIME ( #102, #1 ) ;
#189 = AXIS2_PLACEMENT_3D ( 'NONE', #172, #174, #6 ) ;
#190 = CC_DESIGN_APPROVAL ( #114, ( #72 ) ) ;
#191 = EDGE_CURVE ( 'NONE', #63, #63, #82, .T. ) ;
#192 = CALENDAR_DATE ( 2021, 8, 10 ) ;
#193 = FACE_OUTER_BOUND ( 'NONE', #126, .T. ) ;
#194 = CALENDAR_DATE ( 2021, 8, 10 ) ;
#195 = EDGE_LOOP ( 'NONE', ( #109 ) ) ;
#196 = EDGE_CURVE ( 'NONE', #14, #14, #120, .T. ) ;
#197 = DIRECTION ( 'NONE',  ( 0.0000000000000000000, 1.000000000000000000, 0.0000000000000000000 ) ) ;
#198 = LOCAL_TIME ( 7, 16, 25.00000000000000000, #51 ) ;
#199 = EDGE_LOOP ( 'NONE', ( #215 ) ) ;
#200 = CARTESIAN_POINT ( 'NONE',  ( 6.982962677686266711E-15, 1.499759782661854016E-33, 2.000000000000000000 ) ) ;
#201 = ADVANCED_FACE ( 'NONE', ( #204 ), #205, .T. ) ;
#202 = CARTESIAN_POINT ( 'NONE',  ( 4.195787277160962556E-16, -1.471684067651612746E-17, 0.1201721238055132729 ) ) ;
#203 = CLOSED_SHELL ( 'NONE', ( #185, #148, #105, #168, #100 ) ) ;
#204 = FACE_OUTER_BOUND ( 'NONE', #195, .T. ) ;
#205 = CONICAL_SURFACE ( 'NONE', #186, 0.1999999999999998446, 1.029744258676649649 ) ;
#206 = DIRECTION ( 'NONE',  ( 4.814824860968093136E-31, 1.000000000000000000, 1.355252715606881529E-16 ) ) ;
#207 = APPROVAL_ROLE ( '' ) ;
#208 = CALENDAR_DATE ( 2021, 8, 10 ) ;
#209 = AXIS2_PLACEMENT_3D ( 'NONE', #77, #136, #179 ) ;
#210 = APPROVAL_DATE_TIME ( #101, #87 ) ;
#211 = ORIENTED_EDGE ( 'NONE', *, *, #196, .T. ) ;
#212 = LOCAL_TIME ( 7, 16, 25.00000000000000000, #52 ) ;
#213 = ORIENTED_EDGE ( 'NONE', *, *, #96, .F. ) ;
#214 = APPROVAL_STATUS ( 'not_yet_approved' ) ;
#215 = ORIENTED_EDGE ( 'NONE', *, *, #20, .T. ) ;
#216 = DIRECTION ( 'NONE',  ( 4.275831445896958607E-31, 1.000000000000000000, 1.224646799147353207E-16 ) ) ;
#217 = AXIS2_PLACEMENT_3D ( 'NONE', #160, #4, #159 ) ;
#218 = EDGE_LOOP ( 'NONE', ( #7 ) ) ;
#219 = CARTESIAN_POINT ( 'NONE',  ( 6.982962677686265133E-15, 0.1999999999999997613, 1.999999999999999556 ) ) ;
#220 = CARTESIAN_POINT ( 'NONE',  ( 6.982962677686265133E-15, 0.1999999999999997613, 1.999999999999999556 ) ) ;
#221 =( NAMED_UNIT ( * ) SI_UNIT ( $, .STERADIAN. ) SOLID_ANGLE_UNIT ( ) );
#222 = MECHANICAL_CONTEXT ( 'NONE', #154, 'mechanical' ) ;
#223 = AXIS2_PLACEMENT_3D ( 'NONE', #89, #24, #197 ) ;
ENDSEC;
END-ISO-10303-21;
