ISO-10303-21;
HEADER;
FILE_DESCRIPTION (( 'STEP AP203' ),
    '1' );
FILE_NAME ('952674.step',
    '2021-10-08T05:16:25',
    ( '' ),
    ( '' ),
    'SwSTEP 2.0',
    'SolidWorks 2019',
    '' );
FILE_SCHEMA (( 'CONFIG_CONTROL_DESIGN' ));
ENDSEC;

DATA;
#1 = DIRECTION ( 'NONE',  ( -3.491481338843133355E-15, 1.224646799147353207E-16, -1.000000000000000000 ) ) ;
#2 = CARTESIAN_POINT ( 'NONE',  ( 5.237222008264700033E-15, -1.836970198721029934E-16, 1.500000000000000000 ) ) ;
#3 = UNCERTAINTY_MEASURE_WITH_UNIT (LENGTH_MEASURE( 1.000000000000000082E-05 ), #145, 'distance_accuracy_value', 'NONE');
#4 =( NAMED_UNIT ( * ) SI_UNIT ( $, .STERADIAN. ) SOLID_ANGLE_UNIT ( ) );
#5 = LOCAL_TIME ( 7, 16, 25.00000000000000000, #66 ) ;
#6 = COORDINATED_UNIVERSAL_TIME_OFFSET ( 1, 0, .AHEAD. ) ;
#7 = APPROVAL_PERSON_ORGANIZATION ( #8, #96, #113 ) ;
#8 = PERSON_AND_ORGANIZATION ( #162, #79 ) ;
#9 = DATE_AND_TIME ( #174, #10 ) ;
#10 = LOCAL_TIME ( 7, 16, 25.00000000000000000, #48 ) ;
#11 = ADVANCED_FACE ( 'NONE', ( #200, #54 ), #181, .T. ) ;
#12 = EDGE_LOOP ( 'NONE', ( #215 ) ) ;
#13 = DIRECTION ( 'NONE',  ( 4.275831445896958607E-31, 1.000000000000000000, 1.224646799147353207E-16 ) ) ;
#14 = DIRECTION ( 'NONE',  ( 0.0000000000000000000, 1.000000000000000000, 0.0000000000000000000 ) ) ;
#15 = CIRCLE ( 'NONE', #51, 0.1950000000000000899 ) ;
#16 = VERTEX_POINT ( 'NONE', #17 ) ;
#17 = CARTESIAN_POINT ( 'NONE',  ( 9.211489662088322466E-15, 0.4999999999999963363, 2.638275496308525536 ) ) ;
#18 = DIRECTION ( 'NONE',  ( 0.0000000000000000000, 1.000000000000000000, 0.0000000000000000000 ) ) ;
#19 = EDGE_CURVE ( 'NONE', #186, #186, #62, .T. ) ;
#20 = FACE_OUTER_BOUND ( 'NONE', #103, .T. ) ;
#21 = DIRECTION ( 'NONE',  ( -3.491481338843133355E-15, 1.224646799147353207E-16, -1.000000000000000000 ) ) ;
#22 = PRODUCT_RELATED_PRODUCT_CATEGORY ( 'detail', '', ( #199 ) ) ;
#23 = SECURITY_CLASSIFICATION_LEVEL ( 'unclassified' ) ;
#24 = LOCAL_TIME ( 7, 16, 25.00000000000000000, #116 ) ;
#25 = APPROVAL_STATUS ( 'not_yet_approved' ) ;
#26 = CIRCLE ( 'NONE', #177, 0.4999999999999966693 ) ;
#27 =( NAMED_UNIT ( * ) PLANE_ANGLE_UNIT ( ) SI_UNIT ( $, .RADIAN. ) );
#28 = PERSON_AND_ORGANIZATION_ROLE ( 'classification_officer' ) ;
#29 = CC_DESIGN_PERSON_AND_ORGANIZATION_ASSIGNMENT ( #176, #28, ( #127 ) ) ;
#30 = CIRCLE ( 'NONE', #39, 0.1949999999999998401 ) ;
#31 = MANIFOLD_SOLID_BREP ( 'Corps-Déplacer/Copier1[2]', #98 ) ;
#32 = ADVANCED_BREP_SHAPE_REPRESENTATION ( '952674', ( #37, #31, #86 ), #178 ) ;
#33 = ORIENTED_EDGE ( 'NONE', *, *, #175, .T. ) ;
#34 = EDGE_LOOP ( 'NONE', ( #70 ) ) ;
#35 = ORIENTED_EDGE ( 'NONE', *, *, #175, .F. ) ;
#36 = ORIENTED_EDGE ( 'NONE', *, *, #185, .F. ) ;
#37 = MANIFOLD_SOLID_BREP ( 'Corps-Déplacer/Copier1[1]', #119 ) ;
#38 = CARTESIAN_POINT ( 'NONE',  ( 5.237222008264700033E-15, 1.462265788095308841E-33, 1.500000000000000000 ) ) ;
#39 = AXIS2_PLACEMENT_3D ( 'NONE', #204, #21, #208 ) ;
#40 = CARTESIAN_POINT ( 'NONE',  ( 5.237222008264700033E-15, -1.836970198721029934E-16, 1.500000000000000000 ) ) ;
#41 = DIRECTION ( 'NONE',  ( -3.491481338843133355E-15, 1.224646799147353207E-16, -1.000000000000000000 ) ) ;
#42 = ADVANCED_FACE ( 'NONE', ( #219, #124 ), #168, .T. ) ;
#43 = FACE_OUTER_BOUND ( 'NONE', #141, .T. ) ;
#44 = DESIGN_CONTEXT ( 'detailed design', #218, 'design' ) ;
#45 = CARTESIAN_POINT ( 'NONE',  ( 1.047444401652940007E-13, -3.673940397442059178E-15, 30.00000000000000000 ) ) ;
#46 = CALENDAR_DATE ( 2021, 8, 10 ) ;
#47 = SHAPE_DEFINITION_REPRESENTATION ( #221, #32 ) ;
#48 = COORDINATED_UNIVERSAL_TIME_OFFSET ( 1, 0, .AHEAD. ) ;
#49 = APPROVAL_ROLE ( '' ) ;
#50 = PERSON_AND_ORGANIZATION ( #162, #79 ) ;
#51 = AXIS2_PLACEMENT_3D ( 'NONE', #40, #189, #187 ) ;
#52 = ORIENTED_EDGE ( 'NONE', *, *, #185, .T. ) ;
#53 = PRODUCT_DEFINITION_FORMATION_WITH_SPECIFIED_SOURCE ( 'ANY', '', #199, .NOT_KNOWN. ) ;
#54 = FACE_OUTER_BOUND ( 'NONE', #85, .T. ) ;
#55 = EDGE_LOOP ( 'NONE', ( #99 ) ) ;
#56 = DIRECTION ( 'NONE',  ( 0.0000000000000000000, -1.000000000000000000, 0.0000000000000000000 ) ) ;
#57 = FACE_OUTER_BOUND ( 'NONE', #12, .T. ) ;
#58 = CC_DESIGN_SECURITY_CLASSIFICATION ( #127, ( #53 ) ) ;
#59 = PLANE ( 'NONE',  #78 ) ;
#60 = FACE_BOUND ( 'NONE', #202, .T. ) ;
#61 = FACE_OUTER_BOUND ( 'NONE', #55, .T. ) ;
#62 = CIRCLE ( 'NONE', #106, 0.4999999999999991673 ) ;
#63 = PERSON_AND_ORGANIZATION ( #162, #79 ) ;
#64 = PERSON_AND_ORGANIZATION ( #162, #79 ) ;
#65 = PRODUCT_DEFINITION ( 'UNKNOWN', '', #53, #44 ) ;
#66 = COORDINATED_UNIVERSAL_TIME_OFFSET ( 1, 0, .AHEAD. ) ;
#67 = APPLICATION_PROTOCOL_DEFINITION ( 'international standard', 'config_control_design', 1994, #218 ) ;
#68 = CC_DESIGN_PERSON_AND_ORGANIZATION_ASSIGNMENT ( #50, #117, ( #53 ) ) ;
#69 = CC_DESIGN_APPROVAL ( #96, ( #53 ) ) ;
#70 = ORIENTED_EDGE ( 'NONE', *, *, #104, .F. ) ;
#71 = APPROVAL ( #135, 'UNSPECIFIED' ) ;
#72 = ORIENTED_EDGE ( 'NONE', *, *, #102, .F. ) ;
#73 = DIRECTION ( 'NONE',  ( 3.491481338843133355E-15, -1.224646799147353207E-16, 1.000000000000000000 ) ) ;
#74 = VERTEX_POINT ( 'NONE', #144 ) ;
#75 = DIRECTION ( 'NONE',  ( 4.275831445896958607E-31, 1.000000000000000000, 1.224646799147353207E-16 ) ) ;
#76 = CYLINDRICAL_SURFACE ( 'NONE', #197, 0.4999999999999978351 ) ;
#77 = CARTESIAN_POINT ( 'NONE',  ( 0.0000000000000000000, 0.0000000000000000000, 0.0000000000000000000 ) ) ;
#78 = AXIS2_PLACEMENT_3D ( 'NONE', #108, #147, #170 ) ;
#79 = ORGANIZATION ( 'UNSPECIFIED', 'UNSPECIFIED', '' ) ;
#80 = CALENDAR_DATE ( 2021, 8, 10 ) ;
#81 = CC_DESIGN_DATE_AND_TIME_ASSIGNMENT ( #94, #163, ( #127 ) ) ;
#82 = MECHANICAL_CONTEXT ( 'NONE', #207, 'mechanical' ) ;
#83 = DIRECTION ( 'NONE',  ( 0.0000000000000000000, 0.0000000000000000000, 1.000000000000000000 ) ) ;
#84 = CC_DESIGN_PERSON_AND_ORGANIZATION_ASSIGNMENT ( #97, #211, ( #199 ) ) ;
#85 = EDGE_LOOP ( 'NONE', ( #33 ) ) ;
#86 = AXIS2_PLACEMENT_3D ( 'NONE', #77, #83, #153 ) ;
#87 = AXIS2_PLACEMENT_3D ( 'NONE', #38, #184, #92 ) ;
#88 = CC_DESIGN_APPROVAL ( #71, ( #65 ) ) ;
#89 = VERTEX_POINT ( 'NONE', #222 ) ;
#90 = CARTESIAN_POINT ( 'NONE',  ( 0.0000000000000000000, 0.0000000000000000000, 0.0000000000000000000 ) ) ;
#91 = DIRECTION ( 'NONE',  ( 0.0000000000000000000, 1.000000000000000000, 0.0000000000000000000 ) ) ;
#92 = DIRECTION ( 'NONE',  ( -4.275831445896958607E-31, -1.000000000000000000, -1.224646799147353207E-16 ) ) ;
#93 = FACE_OUTER_BOUND ( 'NONE', #180, .T. ) ;
#94 = DATE_AND_TIME ( #149, #24 ) ;
#95 = APPROVAL_ROLE ( '' ) ;
#96 = APPROVAL ( #193, 'UNSPECIFIED' ) ;
#97 = PERSON_AND_ORGANIZATION ( #162, #79 ) ;
#98 = CLOSED_SHELL ( 'NONE', ( #214, #11, #118 ) ) ;
#99 = ORIENTED_EDGE ( 'NONE', *, *, #110, .T. ) ;
#100 = EDGE_LOOP ( 'NONE', ( #122 ) ) ;
#101 = CARTESIAN_POINT ( 'NONE',  ( 0.0000000000000000000, 0.0000000000000000000, 0.0000000000000000000 ) ) ;
#102 = EDGE_CURVE ( 'NONE', #203, #203, #205, .T. ) ;
#103 = EDGE_LOOP ( 'NONE', ( #35 ) ) ;
#104 = EDGE_CURVE ( 'NONE', #16, #16, #26, .T. ) ;
#105 = VERTEX_POINT ( 'NONE', #169 ) ;
#106 = AXIS2_PLACEMENT_3D ( 'NONE', #157, #156, #14 ) ;
#107 = DIRECTION ( 'NONE',  ( -3.491481338843133355E-15, 1.224646799147353207E-16, -1.000000000000000000 ) ) ;
#108 = CARTESIAN_POINT ( 'NONE',  ( 5.237222008264700033E-15, 1.462265788095308841E-33, 1.500000000000000000 ) ) ;
#109 = DIRECTION ( 'NONE',  ( -3.491481338843133355E-15, 1.224646799147353207E-16, -1.000000000000000000 ) ) ;
#110 = EDGE_CURVE ( 'NONE', #105, #105, #30, .T. ) ;
#111 = CONICAL_SURFACE ( 'NONE', #155, 0.4999999999999966693, 0.2617993877991427465 ) ;
#112 = CARTESIAN_POINT ( 'NONE',  ( 9.211489662088322466E-15, -3.230955641823130563E-16, 2.638275496308525536 ) ) ;
#113 = APPROVAL_ROLE ( '' ) ;
#114 = ADVANCED_FACE ( 'NONE', ( #93 ), #223, .F. ) ;
#115 = APPROVAL_DATE_TIME ( #134, #166 ) ;
#116 = COORDINATED_UNIVERSAL_TIME_OFFSET ( 1, 0, .AHEAD. ) ;
#117 = PERSON_AND_ORGANIZATION_ROLE ( 'creator' ) ;
#118 = ADVANCED_FACE ( 'NONE', ( #20 ), #59, .T. ) ;
#119 = CLOSED_SHELL ( 'NONE', ( #182, #125, #146, #42, #114 ) ) ;
#120 = EDGE_LOOP ( 'NONE', ( #201 ) ) ;
#121 = CC_DESIGN_PERSON_AND_ORGANIZATION_ASSIGNMENT ( #64, #195, ( #53 ) ) ;
#122 = ORIENTED_EDGE ( 'NONE', *, *, #104, .T. ) ;
#123 = ORIENTED_EDGE ( 'NONE', *, *, #102, .T. ) ;
#124 = FACE_BOUND ( 'NONE', #196, .T. ) ;
#125 = ADVANCED_FACE ( 'NONE', ( #60, #159 ), #111, .T. ) ;
#126 = CARTESIAN_POINT ( 'NONE',  ( 5.237222008264700033E-15, 0.1949999999999998956, 1.500000000000000000 ) ) ;
#127 = SECURITY_CLASSIFICATION ( '', '', #23 ) ;
#128 = CARTESIAN_POINT ( 'NONE',  ( 4.090892595231938246E-16, -1.434891965960322088E-17, 0.1171678207103754310 ) ) ;
#129 = DIRECTION ( 'NONE',  ( 3.491481338843133355E-15, -1.224646799147353207E-16, 1.000000000000000000 ) ) ;
#130 = FACE_OUTER_BOUND ( 'NONE', #34, .T. ) ;
#131 = DIRECTION ( 'NONE',  ( -4.938281908685224268E-31, -1.000000000000000000, -1.390002785237827361E-16 ) ) ;
#132 = AXIS2_PLACEMENT_3D ( 'NONE', #2, #41, #18 ) ;
#133 = DATE_TIME_ROLE ( 'creation_date' ) ;
#134 = DATE_AND_TIME ( #80, #139 ) ;
#135 = APPROVAL_STATUS ( 'not_yet_approved' ) ;
#136 = DATE_AND_TIME ( #46, #5 ) ;
#137 = CC_DESIGN_PERSON_AND_ORGANIZATION_ASSIGNMENT ( #63, #190, ( #65 ) ) ;
#138 = AXIS2_PLACEMENT_3D ( 'NONE', #160, #107, #75 ) ;
#139 = LOCAL_TIME ( 7, 16, 25.00000000000000000, #6 ) ;
#140 = EDGE_LOOP ( 'NONE', ( #179 ) ) ;
#141 = EDGE_LOOP ( 'NONE', ( #123 ) ) ;
#142 = CIRCLE ( 'NONE', #151, 0.3999999999999989675 ) ;
#143 = DIRECTION ( 'NONE',  ( -3.491481338843133355E-15, 1.224646799147353207E-16, -1.000000000000000000 ) ) ;
#144 = CARTESIAN_POINT ( 'NONE',  ( 1.047444401652940007E-13, 0.3999999999999953038, 30.00000000000000000 ) ) ;
#145 =( LENGTH_UNIT ( ) NAMED_UNIT ( * ) SI_UNIT ( .MILLI., .METRE. ) );
#146 = ADVANCED_FACE ( 'NONE', ( #130, #57 ), #76, .T. ) ;
#147 = DIRECTION ( 'NONE',  ( 3.491481338843133355E-15, -1.224646799147353207E-16, 1.000000000000000000 ) ) ;
#148 = DIRECTION ( 'NONE',  ( 0.0000000000000000000, 1.000000000000000000, 0.0000000000000000000 ) ) ;
#149 = CALENDAR_DATE ( 2021, 8, 10 ) ;
#150 = LOCAL_TIME ( 7, 16, 25.00000000000000000, #213 ) ;
#151 = AXIS2_PLACEMENT_3D ( 'NONE', #45, #171, #220 ) ;
#152 = PERSON_AND_ORGANIZATION ( #162, #79 ) ;
#153 = DIRECTION ( 'NONE',  ( 1.000000000000000000, 0.0000000000000000000, 0.0000000000000000000 ) ) ;
#154 = CC_DESIGN_APPROVAL ( #166, ( #127 ) ) ;
#155 = AXIS2_PLACEMENT_3D ( 'NONE', #206, #129, #56 ) ;
#156 = DIRECTION ( 'NONE',  ( -3.491481338843133355E-15, 1.224646799147353207E-16, -1.000000000000000000 ) ) ;
#157 = CARTESIAN_POINT ( 'NONE',  ( 1.043952920314096936E-13, -3.661693929450586610E-15, 29.90000000000000213 ) ) ;
#158 = CONICAL_SURFACE ( 'NONE', #164, 0.1949999999999998401, 1.029744258676649649 ) ;
#159 = FACE_OUTER_BOUND ( 'NONE', #100, .T. ) ;
#160 = CARTESIAN_POINT ( 'NONE',  ( 1.047444401652940007E-13, 2.999519565323652267E-33, 30.00000000000000000 ) ) ;
#161 = DATE_AND_TIME ( #210, #150 ) ;
#162 = PERSON ( 'UNSPECIFIED', 'UNSPECIFIED', 'UNSPECIFIED', ('UNSPECIFIED'), ('UNSPECIFIED'), ('UNSPECIFIED') ) ;
#163 = DATE_TIME_ROLE ( 'classification_date' ) ;
#164 = AXIS2_PLACEMENT_3D ( 'NONE', #128, #73, #131 ) ;
#165 = APPLICATION_PROTOCOL_DEFINITION ( 'international standard', 'config_control_design', 1994, #207 ) ;
#166 = APPROVAL ( #25, 'UNSPECIFIED' ) ;
#167 = DIRECTION ( 'NONE',  ( -3.491481338843133355E-15, 1.224646799147353207E-16, -1.000000000000000000 ) ) ;
#168 = CONICAL_SURFACE ( 'NONE', #209, 0.3999999999999989675, 0.7853981633974694843 ) ;
#169 = CARTESIAN_POINT ( 'NONE',  ( 4.090892595231939232E-16, 0.1949999999999998124, 0.1171678207103754588 ) ) ;
#170 = DIRECTION ( 'NONE',  ( -4.275831445896958607E-31, -1.000000000000000000, -1.224646799147353207E-16 ) ) ;
#171 = DIRECTION ( 'NONE',  ( -3.491481338843133355E-15, 1.224646799147353207E-16, -1.000000000000000000 ) ) ;
#172 = PLANE ( 'NONE',  #87 ) ;
#173 = CARTESIAN_POINT ( 'NONE',  ( 1.043952920314096936E-13, 0.4999999999999954481, 29.90000000000000213 ) ) ;
#174 = CALENDAR_DATE ( 2021, 8, 10 ) ;
#175 = EDGE_CURVE ( 'NONE', #89, #89, #15, .T. ) ;
#176 = PERSON_AND_ORGANIZATION ( #162, #79 ) ;
#177 = AXIS2_PLACEMENT_3D ( 'NONE', #112, #1, #91 ) ;
#178 =( GEOMETRIC_REPRESENTATION_CONTEXT ( 3 ) GLOBAL_UNCERTAINTY_ASSIGNED_CONTEXT ( ( #3 ) ) GLOBAL_UNIT_ASSIGNED_CONTEXT ( ( #145, #27, #4 ) ) REPRESENTATION_CONTEXT ( 'NONE', 'WORKASPACE' ) );
#179 = ORIENTED_EDGE ( 'NONE', *, *, #19, .F. ) ;
#180 = EDGE_LOOP ( 'NONE', ( #36 ) ) ;
#181 = CYLINDRICAL_SURFACE ( 'NONE', #216, 0.1949999999999999789 ) ;
#182 = ADVANCED_FACE ( 'NONE', ( #43 ), #172, .F. ) ;
#183 = CARTESIAN_POINT ( 'NONE',  ( 1.047444401652940007E-13, -3.673940397442059178E-15, 30.00000000000000000 ) ) ;
#184 = DIRECTION ( 'NONE',  ( 3.491481338843133355E-15, -1.224646799147353207E-16, 1.000000000000000000 ) ) ;
#185 = EDGE_CURVE ( 'NONE', #74, #74, #142, .T. ) ;
#186 = VERTEX_POINT ( 'NONE', #173 ) ;
#187 = DIRECTION ( 'NONE',  ( 0.0000000000000000000, 1.000000000000000000, 0.0000000000000000000 ) ) ;
#188 = DIRECTION ( 'NONE',  ( 4.275831445896958607E-31, 1.000000000000000000, 1.224646799147353207E-16 ) ) ;
#189 = DIRECTION ( 'NONE',  ( -3.491481338843133355E-15, 1.224646799147353207E-16, -1.000000000000000000 ) ) ;
#190 = PERSON_AND_ORGANIZATION_ROLE ( 'creator' ) ;
#191 = PERSON_AND_ORGANIZATION ( #162, #79 ) ;
#192 = CC_DESIGN_DATE_AND_TIME_ASSIGNMENT ( #136, #133, ( #65 ) ) ;
#193 = APPROVAL_STATUS ( 'not_yet_approved' ) ;
#194 = APPROVAL_DATE_TIME ( #9, #96 ) ;
#195 = PERSON_AND_ORGANIZATION_ROLE ( 'design_supplier' ) ;
#196 = EDGE_LOOP ( 'NONE', ( #52 ) ) ;
#197 = AXIS2_PLACEMENT_3D ( 'NONE', #90, #143, #188 ) ;
#198 = APPROVAL_PERSON_ORGANIZATION ( #152, #71, #49 ) ;
#199 = PRODUCT ( '952674', '952674', '', ( #82 ) ) ;
#200 = FACE_OUTER_BOUND ( 'NONE', #120, .T. ) ;
#201 = ORIENTED_EDGE ( 'NONE', *, *, #110, .F. ) ;
#202 = EDGE_LOOP ( 'NONE', ( #72 ) ) ;
#203 = VERTEX_POINT ( 'NONE', #126 ) ;
#204 = CARTESIAN_POINT ( 'NONE',  ( 4.090892595231938246E-16, -1.434891965960322088E-17, 0.1171678207103754310 ) ) ;
#205 = CIRCLE ( 'NONE', #132, 0.1950000000000000899 ) ;
#206 = CARTESIAN_POINT ( 'NONE',  ( 9.211489662088322466E-15, -3.230955641823130563E-16, 2.638275496308525536 ) ) ;
#207 = APPLICATION_CONTEXT ( 'configuration controlled 3d designs of mechanical parts and assemblies' ) ;
#208 = DIRECTION ( 'NONE',  ( 4.938281908685224268E-31, 1.000000000000000000, 1.390002785237827361E-16 ) ) ;
#209 = AXIS2_PLACEMENT_3D ( 'NONE', #183, #109, #148 ) ;
#210 = CALENDAR_DATE ( 2021, 8, 10 ) ;
#211 = PERSON_AND_ORGANIZATION_ROLE ( 'design_owner' ) ;
#212 = APPROVAL_DATE_TIME ( #161, #71 ) ;
#213 = COORDINATED_UNIVERSAL_TIME_OFFSET ( 1, 0, .AHEAD. ) ;
#214 = ADVANCED_FACE ( 'NONE', ( #61 ), #158, .T. ) ;
#215 = ORIENTED_EDGE ( 'NONE', *, *, #19, .T. ) ;
#216 = AXIS2_PLACEMENT_3D ( 'NONE', #101, #167, #13 ) ;
#217 = APPROVAL_PERSON_ORGANIZATION ( #191, #166, #95 ) ;
#218 = APPLICATION_CONTEXT ( 'configuration controlled 3d designs of mechanical parts and assemblies' ) ;
#219 = FACE_OUTER_BOUND ( 'NONE', #140, .T. ) ;
#220 = DIRECTION ( 'NONE',  ( 0.0000000000000000000, 1.000000000000000000, 0.0000000000000000000 ) ) ;
#221 = PRODUCT_DEFINITION_SHAPE ( 'NONE', 'NONE',  #65 ) ;
#222 = CARTESIAN_POINT ( 'NONE',  ( 5.237222008264700033E-15, 0.1949999999999998956, 1.500000000000000000 ) ) ;
#223 = PLANE ( 'NONE',  #138 ) ;
ENDSEC;
END-ISO-10303-21;
