ISO-10303-21;
HEADER;
FILE_DESCRIPTION (( 'STEP AP203' ),
    '1' );
FILE_NAME ('952673.step',
    '2021-10-08T05:16:24',
    ( '' ),
    ( '' ),
    'SwSTEP 2.0',
    'SolidWorks 2019',
    '' );
FILE_SCHEMA (( 'CONFIG_CONTROL_DESIGN' ));
ENDSEC;

DATA;
#1 = APPROVAL_ROLE ( '' ) ;
#2 = PRODUCT_RELATED_PRODUCT_CATEGORY ( 'detail', '', ( #120 ) ) ;
#3 = LOCAL_TIME ( 7, 16, 24.00000000000000000, #163 ) ;
#4 = DATE_AND_TIME ( #223, #126 ) ;
#5 = FACE_OUTER_BOUND ( 'NONE', #135, .T. ) ;
#6 = FACE_OUTER_BOUND ( 'NONE', #188, .T. ) ;
#7 = CARTESIAN_POINT ( 'NONE',  ( 9.276641590839529159E-15, -3.253807862201853771E-16, 2.656935750346370195 ) ) ;
#8 = VERTEX_POINT ( 'NONE', #82 ) ;
#9 = ADVANCED_FACE ( 'NONE', ( #208, #58 ), #119, .T. ) ;
#10 = CARTESIAN_POINT ( 'NONE',  ( 5.237222008264700033E-15, 1.424771793528762983E-33, 1.500000000000000000 ) ) ;
#11 = AXIS2_PLACEMENT_3D ( 'NONE', #10, #51, #193 ) ;
#12 = APPROVAL_STATUS ( 'not_yet_approved' ) ;
#13 = APPROVAL ( #101, 'UNSPECIFIED' ) ;
#14 = CALENDAR_DATE ( 2021, 8, 10 ) ;
#15 = AXIS2_PLACEMENT_3D ( 'NONE', #196, #143, #61 ) ;
#16 = PERSON_AND_ORGANIZATION ( #118, #70 ) ;
#17 = CARTESIAN_POINT ( 'NONE',  ( 9.276641590839529159E-15, 0.4999999999999963363, 2.656935750346370195 ) ) ;
#18 = CC_DESIGN_SECURITY_CLASSIFICATION ( #64, ( #198 ) ) ;
#19 = PRODUCT_DEFINITION_SHAPE ( 'NONE', 'NONE',  #206 ) ;
#20 = EDGE_LOOP ( 'NONE', ( #190 ) ) ;
#21 = AXIS2_PLACEMENT_3D ( 'NONE', #123, #110, #45 ) ;
#22 = ORIENTED_EDGE ( 'NONE', *, *, #180, .T. ) ;
#23 = EDGE_LOOP ( 'NONE', ( #91 ) ) ;
#24 = AXIS2_PLACEMENT_3D ( 'NONE', #213, #121, #63 ) ;
#25 = CC_DESIGN_PERSON_AND_ORGANIZATION_ASSIGNMENT ( #16, #88, ( #198 ) ) ;
#26 = DIRECTION ( 'NONE',  ( 0.0000000000000000000, 1.000000000000000000, 0.0000000000000000000 ) ) ;
#27 = DIRECTION ( 'NONE',  ( -3.491481338843133355E-15, 1.224646799147353207E-16, -1.000000000000000000 ) ) ;
#28 = DIRECTION ( 'NONE',  ( 3.491481338843133355E-15, -1.224646799147353207E-16, 1.000000000000000000 ) ) ;
#29 = AXIS2_PLACEMENT_3D ( 'NONE', #174, #27, #137 ) ;
#30 = FACE_OUTER_BOUND ( 'NONE', #41, .T. ) ;
#31 = DIRECTION ( 'NONE',  ( 3.491481338843133355E-15, -1.224646799147353207E-16, 1.000000000000000000 ) ) ;
#32 = EDGE_CURVE ( 'NONE', #8, #8, #205, .T. ) ;
#33 = MANIFOLD_SOLID_BREP ( 'Corps-Déplacer/Copier1[1]', #133 ) ;
#34 = CALENDAR_DATE ( 2021, 8, 10 ) ;
#35 = APPLICATION_PROTOCOL_DEFINITION ( 'international standard', 'config_control_design', 1994, #47 ) ;
#36 = APPROVAL_PERSON_ORGANIZATION ( #69, #13, #68 ) ;
#37 = AXIS2_PLACEMENT_3D ( 'NONE', #79, #109, #157 ) ;
#38 = PERSON_AND_ORGANIZATION ( #118, #70 ) ;
#39 = APPROVAL_PERSON_ORGANIZATION ( #128, #42, #184 ) ;
#40 = EDGE_LOOP ( 'NONE', ( #93 ) ) ;
#41 = EDGE_LOOP ( 'NONE', ( #189 ) ) ;
#42 = APPROVAL ( #12, 'UNSPECIFIED' ) ;
#43 = FACE_BOUND ( 'NONE', #40, .T. ) ;
#44 = CC_DESIGN_APPROVAL ( #151, ( #64 ) ) ;
#45 = DIRECTION ( 'NONE',  ( 5.068236695755888618E-31, 1.000000000000000000, 1.426581805901980868E-16 ) ) ;
#46 = DIRECTION ( 'NONE',  ( -3.491481338843133355E-15, 1.224646799147353207E-16, -1.000000000000000000 ) ) ;
#47 = APPLICATION_CONTEXT ( 'configuration controlled 3d designs of mechanical parts and assemblies' ) ;
#48 = PLANE ( 'NONE',  #142 ) ;
#49 = ADVANCED_FACE ( 'NONE', ( #5 ), #113, .T. ) ;
#50 = AXIS2_PLACEMENT_3D ( 'NONE', #84, #99, #216 ) ;
#51 = DIRECTION ( 'NONE',  ( 3.491481338843133355E-15, -1.224646799147353207E-16, 1.000000000000000000 ) ) ;
#52 =( LENGTH_UNIT ( ) NAMED_UNIT ( * ) SI_UNIT ( .MILLI., .METRE. ) );
#53 = CIRCLE ( 'NONE', #24, 0.3999999999999989675 ) ;
#54 = APPLICATION_PROTOCOL_DEFINITION ( 'international standard', 'config_control_design', 1994, #148 ) ;
#55 = DATE_AND_TIME ( #166, #102 ) ;
#56 = LOCAL_TIME ( 7, 16, 24.00000000000000000, #85 ) ;
#57 = APPROVAL_STATUS ( 'not_yet_approved' ) ;
#58 = FACE_OUTER_BOUND ( 'NONE', #105, .T. ) ;
#59 = ADVANCED_FACE ( 'NONE', ( #97, #214 ), #60, .T. ) ;
#60 = CONICAL_SURFACE ( 'NONE', #111, 0.3999999999999989675, 0.7853981633974694843 ) ;
#61 = DIRECTION ( 'NONE',  ( 4.275831445896958607E-31, 1.000000000000000000, 1.224646799147353207E-16 ) ) ;
#62 = FACE_OUTER_BOUND ( 'NONE', #152, .T. ) ;
#63 = DIRECTION ( 'NONE',  ( 0.0000000000000000000, 1.000000000000000000, 0.0000000000000000000 ) ) ;
#64 = SECURITY_CLASSIFICATION ( '', '', #221 ) ;
#65 = PLANE ( 'NONE',  #15 ) ;
#66 = AXIS2_PLACEMENT_3D ( 'NONE', #159, #212, #124 ) ;
#67 = CC_DESIGN_PERSON_AND_ORGANIZATION_ASSIGNMENT ( #185, #200, ( #120 ) ) ;
#68 = APPROVAL_ROLE ( '' ) ;
#69 = PERSON_AND_ORGANIZATION ( #118, #70 ) ;
#70 = ORGANIZATION ( 'UNSPECIFIED', 'UNSPECIFIED', '' ) ;
#71 =( NAMED_UNIT ( * ) SI_UNIT ( $, .STERADIAN. ) SOLID_ANGLE_UNIT ( ) );
#72 = PERSON_AND_ORGANIZATION ( #118, #70 ) ;
#73 = ORIENTED_EDGE ( 'NONE', *, *, #32, .T. ) ;
#74 = SHAPE_DEFINITION_REPRESENTATION ( #19, #144 ) ;
#75 = ORIENTED_EDGE ( 'NONE', *, *, #80, .F. ) ;
#76 = APPROVAL_PERSON_ORGANIZATION ( #134, #151, #1 ) ;
#77 = CARTESIAN_POINT ( 'NONE',  ( 1.047444401652940007E-13, -3.673940397442059178E-15, 30.00000000000000000 ) ) ;
#78 = AXIS2_PLACEMENT_3D ( 'NONE', #81, #139, #141 ) ;
#79 = CARTESIAN_POINT ( 'NONE',  ( 5.237222008264700033E-15, -1.836970198721029934E-16, 1.500000000000000000 ) ) ;
#80 = EDGE_CURVE ( 'NONE', #127, #127, #132, .T. ) ;
#81 = CARTESIAN_POINT ( 'NONE',  ( 9.276641590839529159E-15, -3.253807862201853771E-16, 2.656935750346370195 ) ) ;
#82 = CARTESIAN_POINT ( 'NONE',  ( 5.237222008264700033E-15, 0.1899999999999999467, 1.500000000000000000 ) ) ;
#83 = ADVANCED_FACE ( 'NONE', ( #30, #6 ), #138, .T. ) ;
#84 = CARTESIAN_POINT ( 'NONE',  ( 1.043952920314096936E-13, -3.661693929450586610E-15, 29.90000000000000213 ) ) ;
#85 = COORDINATED_UNIVERSAL_TIME_OFFSET ( 1, 0, .AHEAD. ) ;
#86 = CARTESIAN_POINT ( 'NONE',  ( 0.0000000000000000000, 0.0000000000000000000, 0.0000000000000000000 ) ) ;
#87 = DATE_AND_TIME ( #14, #3 ) ;
#88 = PERSON_AND_ORGANIZATION_ROLE ( 'design_supplier' ) ;
#89 = VERTEX_POINT ( 'NONE', #186 ) ;
#90 = CC_DESIGN_PERSON_AND_ORGANIZATION_ASSIGNMENT ( #220, #203, ( #198 ) ) ;
#91 = ORIENTED_EDGE ( 'NONE', *, *, #202, .T. ) ;
#92 = CONICAL_SURFACE ( 'NONE', #215, 0.4999999999999966693, 0.2617993877991426910 ) ;
#93 = ORIENTED_EDGE ( 'NONE', *, *, #32, .F. ) ;
#94 = EDGE_LOOP ( 'NONE', ( #209 ) ) ;
#95 =( GEOMETRIC_REPRESENTATION_CONTEXT ( 3 ) GLOBAL_UNCERTAINTY_ASSIGNED_CONTEXT ( ( #192 ) ) GLOBAL_UNIT_ASSIGNED_CONTEXT ( ( #52, #100, #71 ) ) REPRESENTATION_CONTEXT ( 'NONE', 'WORKASPACE' ) );
#96 = APPROVAL_DATE_TIME ( #4, #151 ) ;
#97 = FACE_OUTER_BOUND ( 'NONE', #167, .T. ) ;
#98 = DIRECTION ( 'NONE',  ( 0.0000000000000000000, -1.000000000000000000, 0.0000000000000000000 ) ) ;
#99 = DIRECTION ( 'NONE',  ( -3.491481338843133355E-15, 1.224646799147353207E-16, -1.000000000000000000 ) ) ;
#100 =( NAMED_UNIT ( * ) PLANE_ANGLE_UNIT ( ) SI_UNIT ( $, .RADIAN. ) );
#101 = APPROVAL_STATUS ( 'not_yet_approved' ) ;
#102 = LOCAL_TIME ( 7, 16, 24.00000000000000000, #204 ) ;
#103 = VERTEX_POINT ( 'NONE', #17 ) ;
#104 = ADVANCED_FACE ( 'NONE', ( #62 ), #182, .T. ) ;
#105 = EDGE_LOOP ( 'NONE', ( #171 ) ) ;
#106 = AXIS2_PLACEMENT_3D ( 'NONE', #86, #130, #129 ) ;
#107 = EDGE_LOOP ( 'NONE', ( #22 ) ) ;
#108 = VERTEX_POINT ( 'NONE', #173 ) ;
#109 = DIRECTION ( 'NONE',  ( -3.491481338843133355E-15, 1.224646799147353207E-16, -1.000000000000000000 ) ) ;
#110 = DIRECTION ( 'NONE',  ( -3.491481338843133355E-15, 1.224646799147353207E-16, -1.000000000000000000 ) ) ;
#111 = AXIS2_PLACEMENT_3D ( 'NONE', #77, #194, #26 ) ;
#112 = CARTESIAN_POINT ( 'NONE',  ( 5.237222008264700033E-15, 1.424771793528762983E-33, 1.500000000000000000 ) ) ;
#113 = PLANE ( 'NONE',  #11 ) ;
#114 = ADVANCED_FACE ( 'NONE', ( #179 ), #65, .F. ) ;
#115 = MECHANICAL_CONTEXT ( 'NONE', #148, 'mechanical' ) ;
#116 = DATE_TIME_ROLE ( 'classification_date' ) ;
#117 = ADVANCED_FACE ( 'NONE', ( #43, #161 ), #92, .T. ) ;
#118 = PERSON ( 'UNSPECIFIED', 'UNSPECIFIED', 'UNSPECIFIED', ('UNSPECIFIED'), ('UNSPECIFIED'), ('UNSPECIFIED') ) ;
#119 = CYLINDRICAL_SURFACE ( 'NONE', #177, 0.4999999999999978351 ) ;
#120 = PRODUCT ( '952673', '952673', '', ( #115 ) ) ;
#121 = DIRECTION ( 'NONE',  ( -3.491481338843133355E-15, 1.224646799147353207E-16, -1.000000000000000000 ) ) ;
#122 = DESIGN_CONTEXT ( 'detailed design', #47, 'design' ) ;
#123 = CARTESIAN_POINT ( 'NONE',  ( 3.985997913302914428E-16, -1.398099864269032047E-17, 0.1141635176152376030 ) ) ;
#124 = DIRECTION ( 'NONE',  ( 4.275831445896958607E-31, 1.000000000000000000, 1.224646799147353207E-16 ) ) ;
#125 = FACE_OUTER_BOUND ( 'NONE', #154, .T. ) ;
#126 = LOCAL_TIME ( 7, 16, 24.00000000000000000, #207 ) ;
#127 = VERTEX_POINT ( 'NONE', #199 ) ;
#128 = PERSON_AND_ORGANIZATION ( #118, #70 ) ;
#129 = DIRECTION ( 'NONE',  ( 1.000000000000000000, 0.0000000000000000000, 0.0000000000000000000 ) ) ;
#130 = DIRECTION ( 'NONE',  ( 0.0000000000000000000, 0.0000000000000000000, 1.000000000000000000 ) ) ;
#131 = PERSON_AND_ORGANIZATION_ROLE ( 'classification_officer' ) ;
#132 = CIRCLE ( 'NONE', #29, 0.1900000000000001410 ) ;
#133 = CLOSED_SHELL ( 'NONE', ( #222, #117, #9, #59, #114 ) ) ;
#134 = PERSON_AND_ORGANIZATION ( #118, #70 ) ;
#135 = EDGE_LOOP ( 'NONE', ( #75 ) ) ;
#136 = CC_DESIGN_DATE_AND_TIME_ASSIGNMENT ( #55, #116, ( #64 ) ) ;
#137 = DIRECTION ( 'NONE',  ( 0.0000000000000000000, 1.000000000000000000, 0.0000000000000000000 ) ) ;
#138 = CYLINDRICAL_SURFACE ( 'NONE', #66, 0.1900000000000000022 ) ;
#139 = DIRECTION ( 'NONE',  ( -3.491481338843133355E-15, 1.224646799147353207E-16, -1.000000000000000000 ) ) ;
#140 = EDGE_CURVE ( 'NONE', #108, #108, #219, .T. ) ;
#141 = DIRECTION ( 'NONE',  ( 0.0000000000000000000, 1.000000000000000000, 0.0000000000000000000 ) ) ;
#142 = AXIS2_PLACEMENT_3D ( 'NONE', #112, #178, #160 ) ;
#143 = DIRECTION ( 'NONE',  ( -3.491481338843133355E-15, 1.224646799147353207E-16, -1.000000000000000000 ) ) ;
#144 = ADVANCED_BREP_SHAPE_REPRESENTATION ( '952673', ( #33, #175, #106 ), #95 ) ;
#145 = PERSON_AND_ORGANIZATION_ROLE ( 'creator' ) ;
#146 = EDGE_CURVE ( 'NONE', #89, #89, #165, .T. ) ;
#147 = DATE_AND_TIME ( #34, #56 ) ;
#148 = APPLICATION_CONTEXT ( 'configuration controlled 3d designs of mechanical parts and assemblies' ) ;
#149 = APPROVAL_DATE_TIME ( #87, #13 ) ;
#150 = CALENDAR_DATE ( 2021, 8, 10 ) ;
#151 = APPROVAL ( #57, 'UNSPECIFIED' ) ;
#152 = EDGE_LOOP ( 'NONE', ( #170 ) ) ;
#153 = CLOSED_SHELL ( 'NONE', ( #104, #83, #49 ) ) ;
#154 = EDGE_LOOP ( 'NONE', ( #73 ) ) ;
#155 = CC_DESIGN_APPROVAL ( #13, ( #198 ) ) ;
#156 = AXIS2_PLACEMENT_3D ( 'NONE', #176, #28, #197 ) ;
#157 = DIRECTION ( 'NONE',  ( 0.0000000000000000000, 1.000000000000000000, 0.0000000000000000000 ) ) ;
#158 = CARTESIAN_POINT ( 'NONE',  ( 0.0000000000000000000, 0.0000000000000000000, 0.0000000000000000000 ) ) ;
#159 = CARTESIAN_POINT ( 'NONE',  ( 0.0000000000000000000, 0.0000000000000000000, 0.0000000000000000000 ) ) ;
#160 = DIRECTION ( 'NONE',  ( -4.275831445896958607E-31, -1.000000000000000000, -1.224646799147353207E-16 ) ) ;
#161 = FACE_OUTER_BOUND ( 'NONE', #107, .T. ) ;
#162 = LOCAL_TIME ( 7, 16, 24.00000000000000000, #218 ) ;
#163 = COORDINATED_UNIVERSAL_TIME_OFFSET ( 1, 0, .AHEAD. ) ;
#164 = DATE_AND_TIME ( #150, #162 ) ;
#165 = CIRCLE ( 'NONE', #21, 0.1899999999999998357 ) ;
#166 = CALENDAR_DATE ( 2021, 8, 10 ) ;
#167 = EDGE_LOOP ( 'NONE', ( #168 ) ) ;
#168 = ORIENTED_EDGE ( 'NONE', *, *, #140, .F. ) ;
#169 = ORIENTED_EDGE ( 'NONE', *, *, #80, .T. ) ;
#170 = ORIENTED_EDGE ( 'NONE', *, *, #146, .T. ) ;
#171 = ORIENTED_EDGE ( 'NONE', *, *, #140, .T. ) ;
#172 = CC_DESIGN_APPROVAL ( #42, ( #206 ) ) ;
#173 = CARTESIAN_POINT ( 'NONE',  ( 1.043952920314096936E-13, 0.4999999999999954481, 29.90000000000000213 ) ) ;
#174 = CARTESIAN_POINT ( 'NONE',  ( 5.237222008264700033E-15, -1.836970198721029934E-16, 1.500000000000000000 ) ) ;
#175 = MANIFOLD_SOLID_BREP ( 'Corps-Déplacer/Copier1[2]', #153 ) ;
#176 = CARTESIAN_POINT ( 'NONE',  ( 3.985997913302914428E-16, -1.398099864269032047E-17, 0.1141635176152376030 ) ) ;
#177 = AXIS2_PLACEMENT_3D ( 'NONE', #158, #46, #211 ) ;
#178 = DIRECTION ( 'NONE',  ( 3.491481338843133355E-15, -1.224646799147353207E-16, 1.000000000000000000 ) ) ;
#179 = FACE_OUTER_BOUND ( 'NONE', #20, .T. ) ;
#180 = EDGE_CURVE ( 'NONE', #103, #103, #187, .T. ) ;
#181 = APPROVAL_DATE_TIME ( #147, #42 ) ;
#182 = CONICAL_SURFACE ( 'NONE', #156, 0.1899999999999998357, 1.029744258676649649 ) ;
#183 = VERTEX_POINT ( 'NONE', #201 ) ;
#184 = APPROVAL_ROLE ( '' ) ;
#185 = PERSON_AND_ORGANIZATION ( #118, #70 ) ;
#186 = CARTESIAN_POINT ( 'NONE',  ( 3.985997913302915414E-16, 0.1899999999999998079, 0.1141635176152376308 ) ) ;
#187 = CIRCLE ( 'NONE', #78, 0.4999999999999966693 ) ;
#188 = EDGE_LOOP ( 'NONE', ( #169 ) ) ;
#189 = ORIENTED_EDGE ( 'NONE', *, *, #146, .F. ) ;
#190 = ORIENTED_EDGE ( 'NONE', *, *, #202, .F. ) ;
#191 = CC_DESIGN_PERSON_AND_ORGANIZATION_ASSIGNMENT ( #38, #145, ( #206 ) ) ;
#192 = UNCERTAINTY_MEASURE_WITH_UNIT (LENGTH_MEASURE( 1.000000000000000082E-05 ), #52, 'distance_accuracy_value', 'NONE');
#193 = DIRECTION ( 'NONE',  ( -4.275831445896958607E-31, -1.000000000000000000, -1.224646799147353207E-16 ) ) ;
#194 = DIRECTION ( 'NONE',  ( -3.491481338843133355E-15, 1.224646799147353207E-16, -1.000000000000000000 ) ) ;
#195 = CC_DESIGN_PERSON_AND_ORGANIZATION_ASSIGNMENT ( #72, #131, ( #64 ) ) ;
#196 = CARTESIAN_POINT ( 'NONE',  ( 1.047444401652940007E-13, 2.999519565323652267E-33, 30.00000000000000000 ) ) ;
#197 = DIRECTION ( 'NONE',  ( -5.068236695755888618E-31, -1.000000000000000000, -1.426581805901980868E-16 ) ) ;
#198 = PRODUCT_DEFINITION_FORMATION_WITH_SPECIFIED_SOURCE ( 'ANY', '', #120, .NOT_KNOWN. ) ;
#199 = CARTESIAN_POINT ( 'NONE',  ( 5.237222008264700033E-15, 0.1899999999999999467, 1.500000000000000000 ) ) ;
#200 = PERSON_AND_ORGANIZATION_ROLE ( 'design_owner' ) ;
#201 = CARTESIAN_POINT ( 'NONE',  ( 1.047444401652940007E-13, 0.3999999999999953038, 30.00000000000000000 ) ) ;
#202 = EDGE_CURVE ( 'NONE', #183, #183, #53, .T. ) ;
#203 = PERSON_AND_ORGANIZATION_ROLE ( 'creator' ) ;
#204 = COORDINATED_UNIVERSAL_TIME_OFFSET ( 1, 0, .AHEAD. ) ;
#205 = CIRCLE ( 'NONE', #37, 0.1900000000000001410 ) ;
#206 = PRODUCT_DEFINITION ( 'UNKNOWN', '', #198, #122 ) ;
#207 = COORDINATED_UNIVERSAL_TIME_OFFSET ( 1, 0, .AHEAD. ) ;
#208 = FACE_OUTER_BOUND ( 'NONE', #94, .T. ) ;
#209 = ORIENTED_EDGE ( 'NONE', *, *, #180, .F. ) ;
#210 = CC_DESIGN_DATE_AND_TIME_ASSIGNMENT ( #164, #217, ( #206 ) ) ;
#211 = DIRECTION ( 'NONE',  ( 4.275831445896958607E-31, 1.000000000000000000, 1.224646799147353207E-16 ) ) ;
#212 = DIRECTION ( 'NONE',  ( -3.491481338843133355E-15, 1.224646799147353207E-16, -1.000000000000000000 ) ) ;
#213 = CARTESIAN_POINT ( 'NONE',  ( 1.047444401652940007E-13, -3.673940397442059178E-15, 30.00000000000000000 ) ) ;
#214 = FACE_BOUND ( 'NONE', #23, .T. ) ;
#215 = AXIS2_PLACEMENT_3D ( 'NONE', #7, #31, #98 ) ;
#216 = DIRECTION ( 'NONE',  ( 0.0000000000000000000, 1.000000000000000000, 0.0000000000000000000 ) ) ;
#217 = DATE_TIME_ROLE ( 'creation_date' ) ;
#218 = COORDINATED_UNIVERSAL_TIME_OFFSET ( 1, 0, .AHEAD. ) ;
#219 = CIRCLE ( 'NONE', #50, 0.4999999999999991673 ) ;
#220 = PERSON_AND_ORGANIZATION ( #118, #70 ) ;
#221 = SECURITY_CLASSIFICATION_LEVEL ( 'unclassified' ) ;
#222 = ADVANCED_FACE ( 'NONE', ( #125 ), #48, .F. ) ;
#223 = CALENDAR_DATE ( 2021, 8, 10 ) ;
ENDSEC;
END-ISO-10303-21;
