ISO-10303-21;
HEADER;
FILE_DESCRIPTION (( 'STEP AP203' ),
    '1' );
FILE_NAME ('952672.step',
    '2021-10-08T05:16:23',
    ( '' ),
    ( '' ),
    'SwSTEP 2.0',
    'SolidWorks 2019',
    '' );
FILE_SCHEMA (( 'CONFIG_CONTROL_DESIGN' ));
ENDSEC;

DATA;
#1 = PRODUCT_DEFINITION ( 'UNKNOWN', '', #20, #125 ) ;
#2 =( LENGTH_UNIT ( ) NAMED_UNIT ( * ) SI_UNIT ( .MILLI., .METRE. ) );
#3 = AXIS2_PLACEMENT_3D ( 'NONE', #13, #80, #131 ) ;
#4 = DIRECTION ( 'NONE',  ( 0.0000000000000000000, 0.0000000000000000000, 1.000000000000000000 ) ) ;
#5 = CARTESIAN_POINT ( 'NONE',  ( 1.047444401652940007E-13, 0.3999999999999953038, 30.00000000000000000 ) ) ;
#6 = APPLICATION_PROTOCOL_DEFINITION ( 'international standard', 'config_control_design', 1994, #118 ) ;
#7 = SHAPE_DEFINITION_REPRESENTATION ( #177, #184 ) ;
#8 = DATE_AND_TIME ( #213, #55 ) ;
#9 = AXIS2_PLACEMENT_3D ( 'NONE', #11, #77, #62 ) ;
#10 = ORIENTED_EDGE ( 'NONE', *, *, #42, .T. ) ;
#11 = CARTESIAN_POINT ( 'NONE',  ( 5.237222008264700033E-15, 1.387277798962215927E-33, 1.500000000000000000 ) ) ;
#12 = EDGE_LOOP ( 'NONE', ( #222 ) ) ;
#13 = CARTESIAN_POINT ( 'NONE',  ( 9.341793519590737429E-15, -3.276660082580576979E-16, 2.675596004384215298 ) ) ;
#14 = ADVANCED_FACE ( 'NONE', ( #76 ), #187, .F. ) ;
#15 = FACE_OUTER_BOUND ( 'NONE', #78, .T. ) ;
#16 = EDGE_CURVE ( 'NONE', #195, #195, #140, .T. ) ;
#17 = VERTEX_POINT ( 'NONE', #31 ) ;
#18 = FACE_BOUND ( 'NONE', #130, .T. ) ;
#19 = CALENDAR_DATE ( 2021, 8, 10 ) ;
#20 = PRODUCT_DEFINITION_FORMATION_WITH_SPECIFIED_SOURCE ( 'ANY', '', #88, .NOT_KNOWN. ) ;
#21 = PERSON_AND_ORGANIZATION_ROLE ( 'design_owner' ) ;
#22 = ORIENTED_EDGE ( 'NONE', *, *, #164, .T. ) ;
#23 = DIRECTION ( 'NONE',  ( 0.0000000000000000000, 1.000000000000000000, 0.0000000000000000000 ) ) ;
#24 = PLANE ( 'NONE',  #9 ) ;
#25 = CIRCLE ( 'NONE', #144, 0.1849999999999998312 ) ;
#26 = DIRECTION ( 'NONE',  ( 4.275831445896958607E-31, 1.000000000000000000, 1.224646799147353207E-16 ) ) ;
#27 = DIRECTION ( 'NONE',  ( -3.491481338843133355E-15, 1.224646799147353207E-16, -1.000000000000000000 ) ) ;
#28 = CC_DESIGN_DATE_AND_TIME_ASSIGNMENT ( #69, #157, ( #1 ) ) ;
#29 = ADVANCED_FACE ( 'NONE', ( #145 ), #188, .F. ) ;
#30 = CARTESIAN_POINT ( 'NONE',  ( 3.881103231373890118E-16, -1.361307762577741698E-17, 0.1111592145200997611 ) ) ;
#31 = CARTESIAN_POINT ( 'NONE',  ( 5.237222008264700033E-15, 0.1849999999999998868, 1.500000000000000000 ) ) ;
#32 = VERTEX_POINT ( 'NONE', #5 ) ;
#33 = CARTESIAN_POINT ( 'NONE',  ( 3.881103231373891104E-16, 0.1849999999999998035, 0.1111592145200997889 ) ) ;
#34 = APPROVAL_PERSON_ORGANIZATION ( #37, #200, #180 ) ;
#35 = DATE_AND_TIME ( #199, #126 ) ;
#36 = CC_DESIGN_DATE_AND_TIME_ASSIGNMENT ( #35, #128, ( #183 ) ) ;
#37 = PERSON_AND_ORGANIZATION ( #54, #159 ) ;
#38 = PERSON_AND_ORGANIZATION_ROLE ( 'creator' ) ;
#39 = AXIS2_PLACEMENT_3D ( 'NONE', #119, #67, #68 ) ;
#40 = AXIS2_PLACEMENT_3D ( 'NONE', #136, #27, #192 ) ;
#41 = ORIENTED_EDGE ( 'NONE', *, *, #152, .F. ) ;
#42 = EDGE_CURVE ( 'NONE', #32, #32, #91, .T. ) ;
#43 = ORIENTED_EDGE ( 'NONE', *, *, #152, .T. ) ;
#44 = FACE_OUTER_BOUND ( 'NONE', #113, .T. ) ;
#45 = CC_DESIGN_APPROVAL ( #89, ( #20 ) ) ;
#46 = EDGE_LOOP ( 'NONE', ( #65 ) ) ;
#47 = ADVANCED_FACE ( 'NONE', ( #201 ), #24, .T. ) ;
#48 = CARTESIAN_POINT ( 'NONE',  ( 0.0000000000000000000, 0.0000000000000000000, 0.0000000000000000000 ) ) ;
#49 =( NAMED_UNIT ( * ) PLANE_ANGLE_UNIT ( ) SI_UNIT ( $, .RADIAN. ) );
#50 = CIRCLE ( 'NONE', #40, 0.1850000000000000810 ) ;
#51 = VERTEX_POINT ( 'NONE', #153 ) ;
#52 = APPROVAL ( #74, 'UNSPECIFIED' ) ;
#53 = CYLINDRICAL_SURFACE ( 'NONE', #70, 0.4999999999999978351 ) ;
#54 = PERSON ( 'UNSPECIFIED', 'UNSPECIFIED', 'UNSPECIFIED', ('UNSPECIFIED'), ('UNSPECIFIED'), ('UNSPECIFIED') ) ;
#55 = LOCAL_TIME ( 7, 16, 23.00000000000000000, #93 ) ;
#56 = PERSON_AND_ORGANIZATION ( #54, #159 ) ;
#57 = EDGE_CURVE ( 'NONE', #207, #207, #219, .T. ) ;
#58 = PERSON_AND_ORGANIZATION_ROLE ( 'design_supplier' ) ;
#59 = MECHANICAL_CONTEXT ( 'NONE', #204, 'mechanical' ) ;
#60 = AXIS2_PLACEMENT_3D ( 'NONE', #103, #174, #138 ) ;
#61 = DIRECTION ( 'NONE',  ( 3.491481338843133355E-15, -1.224646799147353207E-16, 1.000000000000000000 ) ) ;
#62 = DIRECTION ( 'NONE',  ( -4.275831445896958607E-31, -1.000000000000000000, -1.224646799147353207E-16 ) ) ;
#63 = ORIENTED_EDGE ( 'NONE', *, *, #16, .T. ) ;
#64 = FACE_BOUND ( 'NONE', #12, .T. ) ;
#65 = ORIENTED_EDGE ( 'NONE', *, *, #164, .F. ) ;
#66 = CARTESIAN_POINT ( 'NONE',  ( 0.0000000000000000000, 0.0000000000000000000, 0.0000000000000000000 ) ) ;
#67 = DIRECTION ( 'NONE',  ( -3.491481338843133355E-15, 1.224646799147353207E-16, -1.000000000000000000 ) ) ;
#68 = DIRECTION ( 'NONE',  ( 0.0000000000000000000, 1.000000000000000000, 0.0000000000000000000 ) ) ;
#69 = DATE_AND_TIME ( #143, #171 ) ;
#70 = AXIS2_PLACEMENT_3D ( 'NONE', #48, #208, #168 ) ;
#71 = APPROVAL_PERSON_ORGANIZATION ( #90, #52, #72 ) ;
#72 = APPROVAL_ROLE ( '' ) ;
#73 = APPROVAL_DATE_TIME ( #107, #200 ) ;
#74 = APPROVAL_STATUS ( 'not_yet_approved' ) ;
#75 = DATE_AND_TIME ( #19, #92 ) ;
#76 = FACE_OUTER_BOUND ( 'NONE', #150, .T. ) ;
#77 = DIRECTION ( 'NONE',  ( 3.491481338843133355E-15, -1.224646799147353207E-16, 1.000000000000000000 ) ) ;
#78 = EDGE_LOOP ( 'NONE', ( #147 ) ) ;
#79 = CONICAL_SURFACE ( 'NONE', #39, 0.3999999999999989675, 0.7853981633974694843 ) ;
#80 = DIRECTION ( 'NONE',  ( -3.491481338843133355E-15, 1.224646799147353207E-16, -1.000000000000000000 ) ) ;
#81 = DIRECTION ( 'NONE',  ( 0.0000000000000000000, -1.000000000000000000, 0.0000000000000000000 ) ) ;
#82 = CONICAL_SURFACE ( 'NONE', #211, 0.4999999999999966693, 0.2617993877991426910 ) ;
#83 = VERTEX_POINT ( 'NONE', #33 ) ;
#84 = DIRECTION ( 'NONE',  ( 4.275831445896958607E-31, 1.000000000000000000, 1.224646799147353207E-16 ) ) ;
#85 = CARTESIAN_POINT ( 'NONE',  ( 0.0000000000000000000, 0.0000000000000000000, 0.0000000000000000000 ) ) ;
#86 = LOCAL_TIME ( 7, 16, 23.00000000000000000, #109 ) ;
#87 = DIRECTION ( 'NONE',  ( -3.491481338843133355E-15, 1.224646799147353207E-16, -1.000000000000000000 ) ) ;
#88 = PRODUCT ( '952672', '952672', '', ( #59 ) ) ;
#89 = APPROVAL ( #139, 'UNSPECIFIED' ) ;
#90 = PERSON_AND_ORGANIZATION ( #54, #159 ) ;
#91 = CIRCLE ( 'NONE', #104, 0.3999999999999989675 ) ;
#92 = LOCAL_TIME ( 7, 16, 23.00000000000000000, #95 ) ;
#93 = COORDINATED_UNIVERSAL_TIME_OFFSET ( 1, 0, .AHEAD. ) ;
#94 = ADVANCED_FACE ( 'NONE', ( #64, #44 ), #82, .T. ) ;
#95 = COORDINATED_UNIVERSAL_TIME_OFFSET ( 1, 0, .AHEAD. ) ;
#96 = CARTESIAN_POINT ( 'NONE',  ( 1.047444401652940007E-13, 2.999519565323652267E-33, 30.00000000000000000 ) ) ;
#97 = CARTESIAN_POINT ( 'NONE',  ( 5.237222008264700033E-15, 1.387277798962215927E-33, 1.500000000000000000 ) ) ;
#98 = APPROVAL_PERSON_ORGANIZATION ( #197, #89, #212 ) ;
#99 = EDGE_LOOP ( 'NONE', ( #221 ) ) ;
#100 = CYLINDRICAL_SURFACE ( 'NONE', #121, 0.1849999999999999423 ) ;
#101 = CARTESIAN_POINT ( 'NONE',  ( 9.341793519590737429E-15, 0.4999999999999963363, 2.675596004384215298 ) ) ;
#102 = DIRECTION ( 'NONE',  ( -3.491481338843133355E-15, 1.224646799147353207E-16, -1.000000000000000000 ) ) ;
#103 = CARTESIAN_POINT ( 'NONE',  ( 3.881103231373890118E-16, -1.361307762577741698E-17, 0.1111592145200997611 ) ) ;
#104 = AXIS2_PLACEMENT_3D ( 'NONE', #149, #202, #166 ) ;
#105 = SECURITY_CLASSIFICATION_LEVEL ( 'unclassified' ) ;
#106 = APPROVAL_STATUS ( 'not_yet_approved' ) ;
#107 = DATE_AND_TIME ( #176, #86 ) ;
#108 = AXIS2_PLACEMENT_3D ( 'NONE', #97, #61, #218 ) ;
#109 = COORDINATED_UNIVERSAL_TIME_OFFSET ( 1, 0, .AHEAD. ) ;
#110 = CC_DESIGN_PERSON_AND_ORGANIZATION_ASSIGNMENT ( #56, #58, ( #20 ) ) ;
#111 = CC_DESIGN_APPROVAL ( #52, ( #1 ) ) ;
#112 = ORIENTED_EDGE ( 'NONE', *, *, #194, .F. ) ;
#113 = EDGE_LOOP ( 'NONE', ( #220 ) ) ;
#114 = DIRECTION ( 'NONE',  ( -3.491481338843133355E-15, 1.224646799147353207E-16, -1.000000000000000000 ) ) ;
#115 = CARTESIAN_POINT ( 'NONE',  ( 9.341793519590737429E-15, -3.276660082580576979E-16, 2.675596004384215298 ) ) ;
#116 = CIRCLE ( 'NONE', #182, 0.4999999999999991673 ) ;
#117 = CC_DESIGN_APPROVAL ( #200, ( #183 ) ) ;
#118 = APPLICATION_CONTEXT ( 'configuration controlled 3d designs of mechanical parts and assemblies' ) ;
#119 = CARTESIAN_POINT ( 'NONE',  ( 1.047444401652940007E-13, -3.673940397442059178E-15, 30.00000000000000000 ) ) ;
#120 =( NAMED_UNIT ( * ) SI_UNIT ( $, .STERADIAN. ) SOLID_ANGLE_UNIT ( ) );
#121 = AXIS2_PLACEMENT_3D ( 'NONE', #66, #87, #84 ) ;
#122 =( GEOMETRIC_REPRESENTATION_CONTEXT ( 3 ) GLOBAL_UNCERTAINTY_ASSIGNED_CONTEXT ( ( #209 ) ) GLOBAL_UNIT_ASSIGNED_CONTEXT ( ( #2, #49, #120 ) ) REPRESENTATION_CONTEXT ( 'NONE', 'WORKASPACE' ) );
#123 = APPLICATION_PROTOCOL_DEFINITION ( 'international standard', 'config_control_design', 1994, #204 ) ;
#124 = PERSON_AND_ORGANIZATION_ROLE ( 'classification_officer' ) ;
#125 = DESIGN_CONTEXT ( 'detailed design', #118, 'design' ) ;
#126 = LOCAL_TIME ( 7, 16, 23.00000000000000000, #158 ) ;
#127 = PERSON_AND_ORGANIZATION ( #54, #159 ) ;
#128 = DATE_TIME_ROLE ( 'classification_date' ) ;
#129 = ADVANCED_FACE ( 'NONE', ( #15 ), #185, .T. ) ;
#130 = EDGE_LOOP ( 'NONE', ( #10 ) ) ;
#131 = DIRECTION ( 'NONE',  ( 0.0000000000000000000, 1.000000000000000000, 0.0000000000000000000 ) ) ;
#132 = CC_DESIGN_PERSON_AND_ORGANIZATION_ASSIGNMENT ( #214, #38, ( #20 ) ) ;
#133 = EDGE_LOOP ( 'NONE', ( #43 ) ) ;
#134 = AXIS2_PLACEMENT_3D ( 'NONE', #85, #4, #154 ) ;
#135 = CARTESIAN_POINT ( 'NONE',  ( 1.043952920314096936E-13, -3.661693929450586610E-15, 29.90000000000000213 ) ) ;
#136 = CARTESIAN_POINT ( 'NONE',  ( 5.237222008264700033E-15, -1.836970198721029934E-16, 1.500000000000000000 ) ) ;
#137 = DIRECTION ( 'NONE',  ( 5.205216065911453080E-31, 1.000000000000000000, 1.465138070926358702E-16 ) ) ;
#138 = DIRECTION ( 'NONE',  ( -5.205216065911453080E-31, -1.000000000000000000, -1.465138070926358702E-16 ) ) ;
#139 = APPROVAL_STATUS ( 'not_yet_approved' ) ;
#140 = CIRCLE ( 'NONE', #151, 0.1850000000000000810 ) ;
#141 = APPROVAL_DATE_TIME ( #75, #52 ) ;
#142 = ADVANCED_FACE ( 'NONE', ( #193, #223 ), #53, .T. ) ;
#143 = CALENDAR_DATE ( 2021, 8, 10 ) ;
#144 = AXIS2_PLACEMENT_3D ( 'NONE', #30, #102, #137 ) ;
#145 = FACE_OUTER_BOUND ( 'NONE', #217, .T. ) ;
#146 = DIRECTION ( 'NONE',  ( -3.491481338843133355E-15, 1.224646799147353207E-16, -1.000000000000000000 ) ) ;
#147 = ORIENTED_EDGE ( 'NONE', *, *, #194, .T. ) ;
#148 = ADVANCED_FACE ( 'NONE', ( #191, #190 ), #100, .T. ) ;
#149 = CARTESIAN_POINT ( 'NONE',  ( 1.047444401652940007E-13, -3.673940397442059178E-15, 30.00000000000000000 ) ) ;
#150 = EDGE_LOOP ( 'NONE', ( #165 ) ) ;
#151 = AXIS2_PLACEMENT_3D ( 'NONE', #186, #114, #23 ) ;
#152 = EDGE_CURVE ( 'NONE', #17, #17, #50, .T. ) ;
#153 = CARTESIAN_POINT ( 'NONE',  ( 1.043952920314096936E-13, 0.4999999999999954481, 29.90000000000000213 ) ) ;
#154 = DIRECTION ( 'NONE',  ( 1.000000000000000000, 0.0000000000000000000, 0.0000000000000000000 ) ) ;
#155 = COORDINATED_UNIVERSAL_TIME_OFFSET ( 1, 0, .AHEAD. ) ;
#156 = AXIS2_PLACEMENT_3D ( 'NONE', #96, #146, #26 ) ;
#157 = DATE_TIME_ROLE ( 'creation_date' ) ;
#158 = COORDINATED_UNIVERSAL_TIME_OFFSET ( 1, 0, .AHEAD. ) ;
#159 = ORGANIZATION ( 'UNSPECIFIED', 'UNSPECIFIED', '' ) ;
#160 = EDGE_LOOP ( 'NONE', ( #41 ) ) ;
#161 = EDGE_LOOP ( 'NONE', ( #22 ) ) ;
#162 = MANIFOLD_SOLID_BREP ( 'Corps-Déplacer/Copier1[2]', #203 ) ;
#163 = EDGE_LOOP ( 'NONE', ( #112 ) ) ;
#164 = EDGE_CURVE ( 'NONE', #51, #51, #116, .T. ) ;
#165 = ORIENTED_EDGE ( 'NONE', *, *, #42, .F. ) ;
#166 = DIRECTION ( 'NONE',  ( 0.0000000000000000000, 1.000000000000000000, 0.0000000000000000000 ) ) ;
#167 = ADVANCED_FACE ( 'NONE', ( #206, #18 ), #79, .T. ) ;
#168 = DIRECTION ( 'NONE',  ( 4.275831445896958607E-31, 1.000000000000000000, 1.224646799147353207E-16 ) ) ;
#169 = MANIFOLD_SOLID_BREP ( 'Corps-Déplacer/Copier1[1]', #196 ) ;
#170 = CARTESIAN_POINT ( 'NONE',  ( 5.237222008264700033E-15, 0.1849999999999998868, 1.500000000000000000 ) ) ;
#171 = LOCAL_TIME ( 7, 16, 23.00000000000000000, #155 ) ;
#172 = DIRECTION ( 'NONE',  ( 0.0000000000000000000, 1.000000000000000000, 0.0000000000000000000 ) ) ;
#173 = CC_DESIGN_PERSON_AND_ORGANIZATION_ASSIGNMENT ( #215, #21, ( #88 ) ) ;
#174 = DIRECTION ( 'NONE',  ( 3.491481338843133355E-15, -1.224646799147353207E-16, 1.000000000000000000 ) ) ;
#175 = CC_DESIGN_SECURITY_CLASSIFICATION ( #183, ( #20 ) ) ;
#176 = CALENDAR_DATE ( 2021, 8, 10 ) ;
#177 = PRODUCT_DEFINITION_SHAPE ( 'NONE', 'NONE',  #1 ) ;
#178 = PRODUCT_RELATED_PRODUCT_CATEGORY ( 'detail', '', ( #88 ) ) ;
#179 = CC_DESIGN_PERSON_AND_ORGANIZATION_ASSIGNMENT ( #198, #181, ( #1 ) ) ;
#180 = APPROVAL_ROLE ( '' ) ;
#181 = PERSON_AND_ORGANIZATION_ROLE ( 'creator' ) ;
#182 = AXIS2_PLACEMENT_3D ( 'NONE', #135, #205, #172 ) ;
#183 = SECURITY_CLASSIFICATION ( '', '', #105 ) ;
#184 = ADVANCED_BREP_SHAPE_REPRESENTATION ( '952672', ( #169, #162, #134 ), #122 ) ;
#185 = CONICAL_SURFACE ( 'NONE', #60, 0.1849999999999998312, 1.029744258676649649 ) ;
#186 = CARTESIAN_POINT ( 'NONE',  ( 5.237222008264700033E-15, -1.836970198721029934E-16, 1.500000000000000000 ) ) ;
#187 = PLANE ( 'NONE',  #156 ) ;
#188 = PLANE ( 'NONE',  #108 ) ;
#189 = DIRECTION ( 'NONE',  ( 3.491481338843133355E-15, -1.224646799147353207E-16, 1.000000000000000000 ) ) ;
#190 = FACE_OUTER_BOUND ( 'NONE', #133, .T. ) ;
#191 = FACE_OUTER_BOUND ( 'NONE', #163, .T. ) ;
#192 = DIRECTION ( 'NONE',  ( 0.0000000000000000000, 1.000000000000000000, 0.0000000000000000000 ) ) ;
#193 = FACE_OUTER_BOUND ( 'NONE', #99, .T. ) ;
#194 = EDGE_CURVE ( 'NONE', #83, #83, #25, .T. ) ;
#195 = VERTEX_POINT ( 'NONE', #170 ) ;
#196 = CLOSED_SHELL ( 'NONE', ( #29, #94, #142, #167, #14 ) ) ;
#197 = PERSON_AND_ORGANIZATION ( #54, #159 ) ;
#198 = PERSON_AND_ORGANIZATION ( #54, #159 ) ;
#199 = CALENDAR_DATE ( 2021, 8, 10 ) ;
#200 = APPROVAL ( #106, 'UNSPECIFIED' ) ;
#201 = FACE_OUTER_BOUND ( 'NONE', #160, .T. ) ;
#202 = DIRECTION ( 'NONE',  ( -3.491481338843133355E-15, 1.224646799147353207E-16, -1.000000000000000000 ) ) ;
#203 = CLOSED_SHELL ( 'NONE', ( #129, #148, #47 ) ) ;
#204 = APPLICATION_CONTEXT ( 'configuration controlled 3d designs of mechanical parts and assemblies' ) ;
#205 = DIRECTION ( 'NONE',  ( -3.491481338843133355E-15, 1.224646799147353207E-16, -1.000000000000000000 ) ) ;
#206 = FACE_OUTER_BOUND ( 'NONE', #46, .T. ) ;
#207 = VERTEX_POINT ( 'NONE', #101 ) ;
#208 = DIRECTION ( 'NONE',  ( -3.491481338843133355E-15, 1.224646799147353207E-16, -1.000000000000000000 ) ) ;
#209 = UNCERTAINTY_MEASURE_WITH_UNIT (LENGTH_MEASURE( 1.000000000000000082E-05 ), #2, 'distance_accuracy_value', 'NONE');
#210 = APPROVAL_DATE_TIME ( #8, #89 ) ;
#211 = AXIS2_PLACEMENT_3D ( 'NONE', #115, #189, #81 ) ;
#212 = APPROVAL_ROLE ( '' ) ;
#213 = CALENDAR_DATE ( 2021, 8, 10 ) ;
#214 = PERSON_AND_ORGANIZATION ( #54, #159 ) ;
#215 = PERSON_AND_ORGANIZATION ( #54, #159 ) ;
#216 = CC_DESIGN_PERSON_AND_ORGANIZATION_ASSIGNMENT ( #127, #124, ( #183 ) ) ;
#217 = EDGE_LOOP ( 'NONE', ( #63 ) ) ;
#218 = DIRECTION ( 'NONE',  ( -4.275831445896958607E-31, -1.000000000000000000, -1.224646799147353207E-16 ) ) ;
#219 = CIRCLE ( 'NONE', #3, 0.4999999999999966693 ) ;
#220 = ORIENTED_EDGE ( 'NONE', *, *, #57, .T. ) ;
#221 = ORIENTED_EDGE ( 'NONE', *, *, #57, .F. ) ;
#222 = ORIENTED_EDGE ( 'NONE', *, *, #16, .F. ) ;
#223 = FACE_OUTER_BOUND ( 'NONE', #161, .T. ) ;
ENDSEC;
END-ISO-10303-21;
