ISO-10303-21;
HEADER;
FILE_DESCRIPTION (( 'STEP AP203' ),
    '1' );
FILE_NAME ('952669.step',
    '2021-10-08T05:16:23',
    ( '' ),
    ( '' ),
    'SwSTEP 2.0',
    'SolidWorks 2019',
    '' );
FILE_SCHEMA (( 'CONFIG_CONTROL_DESIGN' ));
ENDSEC;

DATA;
#1 = EDGE_LOOP ( 'NONE', ( #191 ) ) ;
#2 = DATE_AND_TIME ( #142, #197 ) ;
#3 = EDGE_LOOP ( 'NONE', ( #174 ) ) ;
#4 = APPROVAL_ROLE ( '' ) ;
#5 = DIRECTION ( 'NONE',  ( 5.349805401075661375E-31, 1.000000000000000000, 1.505836350674313467E-16 ) ) ;
#6 = AXIS2_PLACEMENT_3D ( 'NONE', #175, #59, #39 ) ;
#7 = CYLINDRICAL_SURFACE ( 'NONE', #56, 0.1799999999999999656 ) ;
#8 = VERTEX_POINT ( 'NONE', #78 ) ;
#9 = FACE_OUTER_BOUND ( 'NONE', #209, .T. ) ;
#10 = FACE_BOUND ( 'NONE', #92, .T. ) ;
#11 = ADVANCED_FACE ( 'NONE', ( #189, #143 ), #52, .T. ) ;
#12 =( NAMED_UNIT ( * ) SI_UNIT ( $, .STERADIAN. ) SOLID_ANGLE_UNIT ( ) );
#13 = CALENDAR_DATE ( 2021, 8, 10 ) ;
#14 = SECURITY_CLASSIFICATION_LEVEL ( 'unclassified' ) ;
#15 = COORDINATED_UNIVERSAL_TIME_OFFSET ( 1, 0, .AHEAD. ) ;
#16 = CARTESIAN_POINT ( 'NONE',  ( 0.0000000000000000000, 0.0000000000000000000, 0.0000000000000000000 ) ) ;
#17 = ADVANCED_FACE ( 'NONE', ( #10, #181 ), #36, .T. ) ;
#18 = MANIFOLD_SOLID_BREP ( 'Corps-Déplacer/Copier1[2]', #80 ) ;
#19 =( GEOMETRIC_REPRESENTATION_CONTEXT ( 3 ) GLOBAL_UNCERTAINTY_ASSIGNED_CONTEXT ( ( #93 ) ) GLOBAL_UNIT_ASSIGNED_CONTEXT ( ( #184, #48, #12 ) ) REPRESENTATION_CONTEXT ( 'NONE', 'WORKASPACE' ) );
#20 = EDGE_LOOP ( 'NONE', ( #130 ) ) ;
#21 = ORIENTED_EDGE ( 'NONE', *, *, #118, .F. ) ;
#22 = FACE_BOUND ( 'NONE', #67, .T. ) ;
#23 = CIRCLE ( 'NONE', #177, 0.1799999999999997990 ) ;
#24 = ADVANCED_FACE ( 'NONE', ( #9 ), #53, .T. ) ;
#25 = VERTEX_POINT ( 'NONE', #162 ) ;
#26 = DIRECTION ( 'NONE',  ( 0.0000000000000000000, 1.000000000000000000, 0.0000000000000000000 ) ) ;
#27 = PLANE ( 'NONE',  #96 ) ;
#28 = CLOSED_SHELL ( 'NONE', ( #109, #17, #11, #122, #158 ) ) ;
#29 = PERSON_AND_ORGANIZATION ( #207, #222 ) ;
#30 = CARTESIAN_POINT ( 'NONE',  ( 9.406945448341944121E-15, 0.4999999999999963363, 2.694256258422059958 ) ) ;
#31 = COORDINATED_UNIVERSAL_TIME_OFFSET ( 1, 0, .AHEAD. ) ;
#32 = CALENDAR_DATE ( 2021, 8, 10 ) ;
#33 = CC_DESIGN_DATE_AND_TIME_ASSIGNMENT ( #88, #168, ( #205 ) ) ;
#34 = APPROVAL_STATUS ( 'not_yet_approved' ) ;
#35 = CC_DESIGN_DATE_AND_TIME_ASSIGNMENT ( #102, #153, ( #215 ) ) ;
#36 = CONICAL_SURFACE ( 'NONE', #113, 0.4999999999999966693, 0.2617993877991426355 ) ;
#37 = ORIENTED_EDGE ( 'NONE', *, *, #198, .T. ) ;
#38 = EDGE_LOOP ( 'NONE', ( #71 ) ) ;
#39 = DIRECTION ( 'NONE',  ( 0.0000000000000000000, 1.000000000000000000, 0.0000000000000000000 ) ) ;
#40 = CC_DESIGN_PERSON_AND_ORGANIZATION_ASSIGNMENT ( #200, #105, ( #215 ) ) ;
#41 = PLANE ( 'NONE',  #138 ) ;
#42 = CC_DESIGN_APPROVAL ( #83, ( #49 ) ) ;
#43 = CARTESIAN_POINT ( 'NONE',  ( 3.776208549444866301E-16, 0.1799999999999997990, 0.1081549114249619470 ) ) ;
#44 = DIRECTION ( 'NONE',  ( -3.491481338843133355E-15, 1.224646799147353207E-16, -1.000000000000000000 ) ) ;
#45 = DIRECTION ( 'NONE',  ( -3.491481338843133355E-15, 1.224646799147353207E-16, -1.000000000000000000 ) ) ;
#46 = PERSON_AND_ORGANIZATION_ROLE ( 'design_owner' ) ;
#47 = MECHANICAL_CONTEXT ( 'NONE', #69, 'mechanical' ) ;
#48 =( NAMED_UNIT ( * ) PLANE_ANGLE_UNIT ( ) SI_UNIT ( $, .RADIAN. ) );
#49 = PRODUCT_DEFINITION_FORMATION_WITH_SPECIFIED_SOURCE ( 'ANY', '', #104, .NOT_KNOWN. ) ;
#50 = APPROVAL_DATE_TIME ( #219, #74 ) ;
#51 = ADVANCED_FACE ( 'NONE', ( #98, #120 ), #7, .T. ) ;
#52 = CYLINDRICAL_SURFACE ( 'NONE', #117, 0.4999999999999978351 ) ;
#53 = CONICAL_SURFACE ( 'NONE', #190, 0.1799999999999997990, 1.029744258676649649 ) ;
#54 = EDGE_CURVE ( 'NONE', #25, #25, #221, .T. ) ;
#55 = EDGE_LOOP ( 'NONE', ( #21 ) ) ;
#56 = AXIS2_PLACEMENT_3D ( 'NONE', #211, #44, #196 ) ;
#57 = CARTESIAN_POINT ( 'NONE',  ( 9.406945448341944121E-15, -3.299512302959299693E-16, 2.694256258422059958 ) ) ;
#58 = CARTESIAN_POINT ( 'NONE',  ( 3.776208549444865314E-16, -1.324515660886451194E-17, 0.1081549114249619192 ) ) ;
#59 = DIRECTION ( 'NONE',  ( -3.491481338843133355E-15, 1.224646799147353207E-16, -1.000000000000000000 ) ) ;
#60 = FACE_OUTER_BOUND ( 'NONE', #171, .T. ) ;
#61 = PRODUCT_DEFINITION_SHAPE ( 'NONE', 'NONE',  #205 ) ;
#62 = CALENDAR_DATE ( 2021, 8, 10 ) ;
#63 = APPROVAL_PERSON_ORGANIZATION ( #65, #83, #123 ) ;
#64 = CC_DESIGN_PERSON_AND_ORGANIZATION_ASSIGNMENT ( #182, #201, ( #49 ) ) ;
#65 = PERSON_AND_ORGANIZATION ( #207, #222 ) ;
#66 = DATE_AND_TIME ( #62, #173 ) ;
#67 = EDGE_LOOP ( 'NONE', ( #204 ) ) ;
#68 = CARTESIAN_POINT ( 'NONE',  ( 0.0000000000000000000, 0.0000000000000000000, 0.0000000000000000000 ) ) ;
#69 = APPLICATION_CONTEXT ( 'configuration controlled 3d designs of mechanical parts and assemblies' ) ;
#70 = DESIGN_CONTEXT ( 'detailed design', #172, 'design' ) ;
#71 = ORIENTED_EDGE ( 'NONE', *, *, #198, .F. ) ;
#72 = APPROVAL_DATE_TIME ( #2, #137 ) ;
#73 = SHAPE_DEFINITION_REPRESENTATION ( #61, #111 ) ;
#74 = APPROVAL ( #186, 'UNSPECIFIED' ) ;
#75 = EDGE_CURVE ( 'NONE', #8, #8, #89, .T. ) ;
#76 = CARTESIAN_POINT ( 'NONE',  ( 5.237222008264700033E-15, -1.836970198721029934E-16, 1.500000000000000000 ) ) ;
#77 = CARTESIAN_POINT ( 'NONE',  ( 1.047444401652940007E-13, 2.999519565323652267E-33, 30.00000000000000000 ) ) ;
#78 = CARTESIAN_POINT ( 'NONE',  ( 5.237222008264700033E-15, 0.1799999999999999378, 1.500000000000000000 ) ) ;
#79 = DIRECTION ( 'NONE',  ( -3.491481338843133355E-15, 1.224646799147353207E-16, -1.000000000000000000 ) ) ;
#80 = CLOSED_SHELL ( 'NONE', ( #24, #51, #213 ) ) ;
#81 = CARTESIAN_POINT ( 'NONE',  ( 9.406945448341944121E-15, -3.299512302959299693E-16, 2.694256258422059958 ) ) ;
#82 = DIRECTION ( 'NONE',  ( 1.000000000000000000, 0.0000000000000000000, 0.0000000000000000000 ) ) ;
#83 = APPROVAL ( #220, 'UNSPECIFIED' ) ;
#84 = CIRCLE ( 'NONE', #144, 0.1800000000000001321 ) ;
#85 = CARTESIAN_POINT ( 'NONE',  ( 5.237222008264700033E-15, 0.1799999999999999378, 1.500000000000000000 ) ) ;
#86 = AXIS2_PLACEMENT_3D ( 'NONE', #57, #176, #132 ) ;
#87 = CALENDAR_DATE ( 2021, 8, 10 ) ;
#88 = DATE_AND_TIME ( #13, #194 ) ;
#89 = CIRCLE ( 'NONE', #6, 0.1800000000000001321 ) ;
#90 = ORIENTED_EDGE ( 'NONE', *, *, #75, .F. ) ;
#91 = CC_DESIGN_PERSON_AND_ORGANIZATION_ASSIGNMENT ( #29, #141, ( #49 ) ) ;
#92 = EDGE_LOOP ( 'NONE', ( #223 ) ) ;
#93 = UNCERTAINTY_MEASURE_WITH_UNIT (LENGTH_MEASURE( 1.000000000000000082E-05 ), #184, 'distance_accuracy_value', 'NONE');
#94 = DIRECTION ( 'NONE',  ( 3.491481338843133355E-15, -1.224646799147353207E-16, 1.000000000000000000 ) ) ;
#95 = DIRECTION ( 'NONE',  ( 0.0000000000000000000, 1.000000000000000000, 0.0000000000000000000 ) ) ;
#96 = AXIS2_PLACEMENT_3D ( 'NONE', #77, #45, #149 ) ;
#97 = LOCAL_TIME ( 7, 16, 23.00000000000000000, #15 ) ;
#98 = FACE_OUTER_BOUND ( 'NONE', #38, .T. ) ;
#99 = CARTESIAN_POINT ( 'NONE',  ( 5.237222008264700033E-15, 1.349783804395669897E-33, 1.500000000000000000 ) ) ;
#100 = CARTESIAN_POINT ( 'NONE',  ( 5.237222008264700033E-15, 1.349783804395669897E-33, 1.500000000000000000 ) ) ;
#101 = MANIFOLD_SOLID_BREP ( 'Corps-Déplacer/Copier1[1]', #28 ) ;
#102 = DATE_AND_TIME ( #87, #97 ) ;
#103 = PERSON_AND_ORGANIZATION ( #207, #222 ) ;
#104 = PRODUCT ( '952669', '952669', '', ( #47 ) ) ;
#105 = PERSON_AND_ORGANIZATION_ROLE ( 'classification_officer' ) ;
#106 = VERTEX_POINT ( 'NONE', #85 ) ;
#107 = AXIS2_PLACEMENT_3D ( 'NONE', #134, #150, #214 ) ;
#108 = LOCAL_TIME ( 7, 16, 23.00000000000000000, #31 ) ;
#109 = ADVANCED_FACE ( 'NONE', ( #60 ), #41, .F. ) ;
#110 = DIRECTION ( 'NONE',  ( -3.491481338843133355E-15, 1.224646799147353207E-16, -1.000000000000000000 ) ) ;
#111 = ADVANCED_BREP_SHAPE_REPRESENTATION ( '952669', ( #101, #18, #156 ), #19 ) ;
#112 = COORDINATED_UNIVERSAL_TIME_OFFSET ( 1, 0, .AHEAD. ) ;
#113 = AXIS2_PLACEMENT_3D ( 'NONE', #81, #94, #119 ) ;
#114 = ORIENTED_EDGE ( 'NONE', *, *, #208, .T. ) ;
#115 = DIRECTION ( 'NONE',  ( -3.491481338843133355E-15, 1.224646799147353207E-16, -1.000000000000000000 ) ) ;
#116 = FACE_OUTER_BOUND ( 'NONE', #206, .T. ) ;
#117 = AXIS2_PLACEMENT_3D ( 'NONE', #68, #110, #164 ) ;
#118 = EDGE_CURVE ( 'NONE', #148, #148, #160, .T. ) ;
#119 = DIRECTION ( 'NONE',  ( 0.0000000000000000000, -1.000000000000000000, 0.0000000000000000000 ) ) ;
#120 = FACE_OUTER_BOUND ( 'NONE', #20, .T. ) ;
#121 = CARTESIAN_POINT ( 'NONE',  ( 1.047444401652940007E-13, -3.673940397442059178E-15, 30.00000000000000000 ) ) ;
#122 = ADVANCED_FACE ( 'NONE', ( #179, #22 ), #218, .T. ) ;
#123 = APPROVAL_ROLE ( '' ) ;
#124 = APPROVAL_ROLE ( '' ) ;
#125 = PERSON_AND_ORGANIZATION ( #207, #222 ) ;
#126 = APPROVAL_PERSON_ORGANIZATION ( #125, #137, #4 ) ;
#127 = APPROVAL_DATE_TIME ( #66, #83 ) ;
#128 = CC_DESIGN_PERSON_AND_ORGANIZATION_ASSIGNMENT ( #203, #46, ( #104 ) ) ;
#129 = AXIS2_PLACEMENT_3D ( 'NONE', #121, #79, #95 ) ;
#130 = ORIENTED_EDGE ( 'NONE', *, *, #75, .T. ) ;
#131 = EDGE_LOOP ( 'NONE', ( #154 ) ) ;
#132 = DIRECTION ( 'NONE',  ( 0.0000000000000000000, 1.000000000000000000, 0.0000000000000000000 ) ) ;
#133 = DIRECTION ( 'NONE',  ( 3.491481338843133355E-15, -1.224646799147353207E-16, 1.000000000000000000 ) ) ;
#134 = CARTESIAN_POINT ( 'NONE',  ( 1.047444401652940007E-13, -3.673940397442059178E-15, 30.00000000000000000 ) ) ;
#135 = CARTESIAN_POINT ( 'NONE',  ( 3.776208549444865314E-16, -1.324515660886451194E-17, 0.1081549114249619192 ) ) ;
#136 = DIRECTION ( 'NONE',  ( 3.491481338843133355E-15, -1.224646799147353207E-16, 1.000000000000000000 ) ) ;
#137 = APPROVAL ( #34, 'UNSPECIFIED' ) ;
#138 = AXIS2_PLACEMENT_3D ( 'NONE', #100, #136, #195 ) ;
#139 = APPLICATION_PROTOCOL_DEFINITION ( 'international standard', 'config_control_design', 1994, #69 ) ;
#140 = COORDINATED_UNIVERSAL_TIME_OFFSET ( 1, 0, .AHEAD. ) ;
#141 = PERSON_AND_ORGANIZATION_ROLE ( 'creator' ) ;
#142 = CALENDAR_DATE ( 2021, 8, 10 ) ;
#143 = FACE_OUTER_BOUND ( 'NONE', #155, .T. ) ;
#144 = AXIS2_PLACEMENT_3D ( 'NONE', #76, #146, #26 ) ;
#145 = ORIENTED_EDGE ( 'NONE', *, *, #118, .T. ) ;
#146 = DIRECTION ( 'NONE',  ( -3.491481338843133355E-15, 1.224646799147353207E-16, -1.000000000000000000 ) ) ;
#147 = DIRECTION ( 'NONE',  ( 3.491481338843133355E-15, -1.224646799147353207E-16, 1.000000000000000000 ) ) ;
#148 = VERTEX_POINT ( 'NONE', #212 ) ;
#149 = DIRECTION ( 'NONE',  ( 4.275831445896958607E-31, 1.000000000000000000, 1.224646799147353207E-16 ) ) ;
#150 = DIRECTION ( 'NONE',  ( -3.491481338843133355E-15, 1.224646799147353207E-16, -1.000000000000000000 ) ) ;
#151 = APPLICATION_PROTOCOL_DEFINITION ( 'international standard', 'config_control_design', 1994, #172 ) ;
#152 = CIRCLE ( 'NONE', #86, 0.4999999999999966693 ) ;
#153 = DATE_TIME_ROLE ( 'classification_date' ) ;
#154 = ORIENTED_EDGE ( 'NONE', *, *, #217, .T. ) ;
#155 = EDGE_LOOP ( 'NONE', ( #145 ) ) ;
#156 = AXIS2_PLACEMENT_3D ( 'NONE', #16, #166, #82 ) ;
#157 = DIRECTION ( 'NONE',  ( -3.491481338843133355E-15, 1.224646799147353207E-16, -1.000000000000000000 ) ) ;
#158 = ADVANCED_FACE ( 'NONE', ( #159 ), #27, .F. ) ;
#159 = FACE_OUTER_BOUND ( 'NONE', #3, .T. ) ;
#160 = CIRCLE ( 'NONE', #187, 0.4999999999999991673 ) ;
#161 = APPROVAL_PERSON_ORGANIZATION ( #169, #74, #124 ) ;
#162 = CARTESIAN_POINT ( 'NONE',  ( 1.047444401652940007E-13, 0.3999999999999953038, 30.00000000000000000 ) ) ;
#163 = PLANE ( 'NONE',  #185 ) ;
#164 = DIRECTION ( 'NONE',  ( 4.275831445896958607E-31, 1.000000000000000000, 1.224646799147353207E-16 ) ) ;
#165 = COORDINATED_UNIVERSAL_TIME_OFFSET ( 1, 0, .AHEAD. ) ;
#166 = DIRECTION ( 'NONE',  ( 0.0000000000000000000, 0.0000000000000000000, 1.000000000000000000 ) ) ;
#167 = PERSON_AND_ORGANIZATION_ROLE ( 'creator' ) ;
#168 = DATE_TIME_ROLE ( 'creation_date' ) ;
#169 = PERSON_AND_ORGANIZATION ( #207, #222 ) ;
#170 = CC_DESIGN_PERSON_AND_ORGANIZATION_ASSIGNMENT ( #103, #167, ( #205 ) ) ;
#171 = EDGE_LOOP ( 'NONE', ( #114 ) ) ;
#172 = APPLICATION_CONTEXT ( 'configuration controlled 3d designs of mechanical parts and assemblies' ) ;
#173 = LOCAL_TIME ( 7, 16, 23.00000000000000000, #140 ) ;
#174 = ORIENTED_EDGE ( 'NONE', *, *, #54, .F. ) ;
#175 = CARTESIAN_POINT ( 'NONE',  ( 5.237222008264700033E-15, -1.836970198721029934E-16, 1.500000000000000000 ) ) ;
#176 = DIRECTION ( 'NONE',  ( -3.491481338843133355E-15, 1.224646799147353207E-16, -1.000000000000000000 ) ) ;
#177 = AXIS2_PLACEMENT_3D ( 'NONE', #58, #157, #5 ) ;
#178 = CC_DESIGN_APPROVAL ( #137, ( #215 ) ) ;
#179 = FACE_OUTER_BOUND ( 'NONE', #55, .T. ) ;
#180 = DIRECTION ( 'NONE',  ( 0.0000000000000000000, 1.000000000000000000, 0.0000000000000000000 ) ) ;
#181 = FACE_OUTER_BOUND ( 'NONE', #131, .T. ) ;
#182 = PERSON_AND_ORGANIZATION ( #207, #222 ) ;
#183 = PRODUCT_RELATED_PRODUCT_CATEGORY ( 'detail', '', ( #104 ) ) ;
#184 =( LENGTH_UNIT ( ) NAMED_UNIT ( * ) SI_UNIT ( .MILLI., .METRE. ) );
#185 = AXIS2_PLACEMENT_3D ( 'NONE', #99, #133, #210 ) ;
#186 = APPROVAL_STATUS ( 'not_yet_approved' ) ;
#187 = AXIS2_PLACEMENT_3D ( 'NONE', #216, #115, #180 ) ;
#188 = CC_DESIGN_APPROVAL ( #74, ( #205 ) ) ;
#189 = FACE_OUTER_BOUND ( 'NONE', #1, .T. ) ;
#190 = AXIS2_PLACEMENT_3D ( 'NONE', #135, #147, #192 ) ;
#191 = ORIENTED_EDGE ( 'NONE', *, *, #217, .F. ) ;
#192 = DIRECTION ( 'NONE',  ( -5.349805401075661375E-31, -1.000000000000000000, -1.505836350674313467E-16 ) ) ;
#193 = VERTEX_POINT ( 'NONE', #43 ) ;
#194 = LOCAL_TIME ( 7, 16, 23.00000000000000000, #165 ) ;
#195 = DIRECTION ( 'NONE',  ( -4.275831445896958607E-31, -1.000000000000000000, -1.224646799147353207E-16 ) ) ;
#196 = DIRECTION ( 'NONE',  ( 4.275831445896958607E-31, 1.000000000000000000, 1.224646799147353207E-16 ) ) ;
#197 = LOCAL_TIME ( 7, 16, 23.00000000000000000, #112 ) ;
#198 = EDGE_CURVE ( 'NONE', #193, #193, #23, .T. ) ;
#199 = VERTEX_POINT ( 'NONE', #30 ) ;
#200 = PERSON_AND_ORGANIZATION ( #207, #222 ) ;
#201 = PERSON_AND_ORGANIZATION_ROLE ( 'design_supplier' ) ;
#202 = CC_DESIGN_SECURITY_CLASSIFICATION ( #215, ( #49 ) ) ;
#203 = PERSON_AND_ORGANIZATION ( #207, #222 ) ;
#204 = ORIENTED_EDGE ( 'NONE', *, *, #54, .T. ) ;
#205 = PRODUCT_DEFINITION ( 'UNKNOWN', '', #49, #70 ) ;
#206 = EDGE_LOOP ( 'NONE', ( #90 ) ) ;
#207 = PERSON ( 'UNSPECIFIED', 'UNSPECIFIED', 'UNSPECIFIED', ('UNSPECIFIED'), ('UNSPECIFIED'), ('UNSPECIFIED') ) ;
#208 = EDGE_CURVE ( 'NONE', #106, #106, #84, .T. ) ;
#209 = EDGE_LOOP ( 'NONE', ( #37 ) ) ;
#210 = DIRECTION ( 'NONE',  ( -4.275831445896958607E-31, -1.000000000000000000, -1.224646799147353207E-16 ) ) ;
#211 = CARTESIAN_POINT ( 'NONE',  ( 0.0000000000000000000, 0.0000000000000000000, 0.0000000000000000000 ) ) ;
#212 = CARTESIAN_POINT ( 'NONE',  ( 1.043952920314096936E-13, 0.4999999999999954481, 29.90000000000000213 ) ) ;
#213 = ADVANCED_FACE ( 'NONE', ( #116 ), #163, .T. ) ;
#214 = DIRECTION ( 'NONE',  ( 0.0000000000000000000, 1.000000000000000000, 0.0000000000000000000 ) ) ;
#215 = SECURITY_CLASSIFICATION ( '', '', #14 ) ;
#216 = CARTESIAN_POINT ( 'NONE',  ( 1.043952920314096936E-13, -3.661693929450586610E-15, 29.90000000000000213 ) ) ;
#217 = EDGE_CURVE ( 'NONE', #199, #199, #152, .T. ) ;
#218 = CONICAL_SURFACE ( 'NONE', #129, 0.3999999999999989675, 0.7853981633974694843 ) ;
#219 = DATE_AND_TIME ( #32, #108 ) ;
#220 = APPROVAL_STATUS ( 'not_yet_approved' ) ;
#221 = CIRCLE ( 'NONE', #107, 0.3999999999999989675 ) ;
#222 = ORGANIZATION ( 'UNSPECIFIED', 'UNSPECIFIED', '' ) ;
#223 = ORIENTED_EDGE ( 'NONE', *, *, #208, .F. ) ;
ENDSEC;
END-ISO-10303-21;
