ISO-10303-21;
HEADER;
FILE_DESCRIPTION (( 'STEP AP203' ),
    '1' );
FILE_NAME ('952667.step',
    '2021-10-08T05:16:22',
    ( '' ),
    ( '' ),
    'SwSTEP 2.0',
    'SolidWorks 2019',
    '' );
FILE_SCHEMA (( 'CONFIG_CONTROL_DESIGN' ));
ENDSEC;

DATA;
#1 =( LENGTH_UNIT ( ) NAMED_UNIT ( * ) SI_UNIT ( .MILLI., .METRE. ) );
#2 = CALENDAR_DATE ( 2021, 8, 10 ) ;
#3 = ADVANCED_FACE ( 'NONE', ( #38, #41 ), #126, .T. ) ;
#4 = APPROVAL_DATE_TIME ( #20, #39 ) ;
#5 = CALENDAR_DATE ( 2021, 8, 10 ) ;
#6 = PERSON_AND_ORGANIZATION ( #164, #197 ) ;
#7 = PRODUCT ( '952667', '952667', '', ( #139 ) ) ;
#8 = PERSON_AND_ORGANIZATION ( #164, #197 ) ;
#9 = AXIS2_PLACEMENT_3D ( 'NONE', #116, #191, #205 ) ;
#10 = MANIFOLD_SOLID_BREP ( 'Corps-Déplacer/Copier1[1]', #150 ) ;
#11 = CARTESIAN_POINT ( 'NONE',  ( 3.671313867515841497E-16, -1.287723559195160845E-17, 0.1051506083298240912 ) ) ;
#12 = EDGE_CURVE ( 'NONE', #44, #44, #149, .T. ) ;
#13 = AXIS2_PLACEMENT_3D ( 'NONE', #100, #58, #14 ) ;
#14 = DIRECTION ( 'NONE',  ( 0.0000000000000000000, 1.000000000000000000, 0.0000000000000000000 ) ) ;
#15 = EDGE_LOOP ( 'NONE', ( #111 ) ) ;
#16 = EDGE_LOOP ( 'NONE', ( #128 ) ) ;
#17 = ADVANCED_FACE ( 'NONE', ( #109 ), #94, .T. ) ;
#18 = FACE_OUTER_BOUND ( 'NONE', #185, .T. ) ;
#19 = PERSON_AND_ORGANIZATION ( #164, #197 ) ;
#20 = DATE_AND_TIME ( #165, #104 ) ;
#21 = APPLICATION_PROTOCOL_DEFINITION ( 'international standard', 'config_control_design', 1994, #144 ) ;
#22 = APPROVAL_PERSON_ORGANIZATION ( #168, #141, #92 ) ;
#23 = CARTESIAN_POINT ( 'NONE',  ( 0.0000000000000000000, 0.0000000000000000000, 0.0000000000000000000 ) ) ;
#24 = DIRECTION ( 'NONE',  ( -4.275831445896958607E-31, -1.000000000000000000, -1.224646799147353207E-16 ) ) ;
#25 = CC_DESIGN_PERSON_AND_ORGANIZATION_ASSIGNMENT ( #66, #47, ( #193 ) ) ;
#26 = DIRECTION ( 'NONE',  ( -3.491481338843133355E-15, 1.224646799147353207E-16, -1.000000000000000000 ) ) ;
#27 = EDGE_LOOP ( 'NONE', ( #70 ) ) ;
#28 = DIRECTION ( 'NONE',  ( -3.491481338843133355E-15, 1.224646799147353207E-16, -1.000000000000000000 ) ) ;
#29 = FACE_OUTER_BOUND ( 'NONE', #15, .T. ) ;
#30 = VERTEX_POINT ( 'NONE', #181 ) ;
#31 =( GEOMETRIC_REPRESENTATION_CONTEXT ( 3 ) GLOBAL_UNCERTAINTY_ASSIGNED_CONTEXT ( ( #45 ) ) GLOBAL_UNIT_ASSIGNED_CONTEXT ( ( #1, #211, #63 ) ) REPRESENTATION_CONTEXT ( 'NONE', 'WORKASPACE' ) );
#32 = VERTEX_POINT ( 'NONE', #138 ) ;
#33 = CC_DESIGN_DATE_AND_TIME_ASSIGNMENT ( #55, #146, ( #223 ) ) ;
#34 = ORIENTED_EDGE ( 'NONE', *, *, #176, .T. ) ;
#35 = AXIS2_PLACEMENT_3D ( 'NONE', #157, #26, #173 ) ;
#36 = AXIS2_PLACEMENT_3D ( 'NONE', #65, #142, #48 ) ;
#37 = APPROVAL_STATUS ( 'not_yet_approved' ) ;
#38 = FACE_BOUND ( 'NONE', #93, .T. ) ;
#39 = APPROVAL ( #161, 'UNSPECIFIED' ) ;
#40 = ORIENTED_EDGE ( 'NONE', *, *, #127, .T. ) ;
#41 = FACE_OUTER_BOUND ( 'NONE', #177, .T. ) ;
#42 = AXIS2_PLACEMENT_3D ( 'NONE', #190, #75, #156 ) ;
#43 = DIRECTION ( 'NONE',  ( -3.491481338843133355E-15, 1.224646799147353207E-16, -1.000000000000000000 ) ) ;
#44 = VERTEX_POINT ( 'NONE', #105 ) ;
#45 = UNCERTAINTY_MEASURE_WITH_UNIT (LENGTH_MEASURE( 1.000000000000000082E-05 ), #1, 'distance_accuracy_value', 'NONE');
#46 = VERTEX_POINT ( 'NONE', #102 ) ;
#47 = PERSON_AND_ORGANIZATION_ROLE ( 'creator' ) ;
#48 = DIRECTION ( 'NONE',  ( 0.0000000000000000000, 1.000000000000000000, 0.0000000000000000000 ) ) ;
#49 = APPROVAL_ROLE ( '' ) ;
#50 = SECURITY_CLASSIFICATION_LEVEL ( 'unclassified' ) ;
#51 = AXIS2_PLACEMENT_3D ( 'NONE', #59, #60, #137 ) ;
#52 = SHAPE_DEFINITION_REPRESENTATION ( #54, #113 ) ;
#53 = EDGE_LOOP ( 'NONE', ( #98 ) ) ;
#54 = PRODUCT_DEFINITION_SHAPE ( 'NONE', 'NONE',  #193 ) ;
#55 = DATE_AND_TIME ( #72, #206 ) ;
#56 = FACE_OUTER_BOUND ( 'NONE', #16, .T. ) ;
#57 = DIRECTION ( 'NONE',  ( 5.502656983963536639E-31, 1.000000000000000000, 1.548860246407865062E-16 ) ) ;
#58 = DIRECTION ( 'NONE',  ( -3.491481338843133355E-15, 1.224646799147353207E-16, -1.000000000000000000 ) ) ;
#59 = CARTESIAN_POINT ( 'NONE',  ( 0.0000000000000000000, 0.0000000000000000000, 0.0000000000000000000 ) ) ;
#60 = DIRECTION ( 'NONE',  ( -3.491481338843133355E-15, 1.224646799147353207E-16, -1.000000000000000000 ) ) ;
#61 = PLANE ( 'NONE',  #184 ) ;
#62 = EDGE_CURVE ( 'NONE', #120, #120, #222, .T. ) ;
#63 =( NAMED_UNIT ( * ) SI_UNIT ( $, .STERADIAN. ) SOLID_ANGLE_UNIT ( ) );
#64 = CC_DESIGN_SECURITY_CLASSIFICATION ( #223, ( #215 ) ) ;
#65 = CARTESIAN_POINT ( 'NONE',  ( 5.237222008264700033E-15, -1.836970198721029934E-16, 1.500000000000000000 ) ) ;
#66 = PERSON_AND_ORGANIZATION ( #164, #197 ) ;
#67 = AXIS2_PLACEMENT_3D ( 'NONE', #129, #186, #24 ) ;
#68 = COORDINATED_UNIVERSAL_TIME_OFFSET ( 1, 0, .AHEAD. ) ;
#69 = DATE_AND_TIME ( #199, #151 ) ;
#70 = ORIENTED_EDGE ( 'NONE', *, *, #159, .T. ) ;
#71 = LOCAL_TIME ( 7, 16, 22.00000000000000000, #163 ) ;
#72 = CALENDAR_DATE ( 2021, 8, 10 ) ;
#73 = CC_DESIGN_DATE_AND_TIME_ASSIGNMENT ( #143, #86, ( #193 ) ) ;
#74 = FACE_BOUND ( 'NONE', #204, .T. ) ;
#75 = DIRECTION ( 'NONE',  ( 3.491481338843133355E-15, -1.224646799147353207E-16, 1.000000000000000000 ) ) ;
#76 = CYLINDRICAL_SURFACE ( 'NONE', #35, 0.1749999999999999056 ) ;
#77 = EDGE_LOOP ( 'NONE', ( #78 ) ) ;
#78 = ORIENTED_EDGE ( 'NONE', *, *, #159, .F. ) ;
#79 = PRODUCT_RELATED_PRODUCT_CATEGORY ( 'detail', '', ( #7 ) ) ;
#80 = PERSON_AND_ORGANIZATION_ROLE ( 'design_owner' ) ;
#81 = MANIFOLD_SOLID_BREP ( 'Corps-Déplacer/Copier1[2]', #103 ) ;
#82 = DIRECTION ( 'NONE',  ( -3.491481338843133355E-15, 1.224646799147353207E-16, -1.000000000000000000 ) ) ;
#83 = PERSON_AND_ORGANIZATION ( #164, #197 ) ;
#84 = CIRCLE ( 'NONE', #89, 0.3999999999999989675 ) ;
#85 = APPROVAL_ROLE ( '' ) ;
#86 = DATE_TIME_ROLE ( 'creation_date' ) ;
#87 = DATE_AND_TIME ( #5, #97 ) ;
#88 = AXIS2_PLACEMENT_3D ( 'NONE', #114, #43, #174 ) ;
#89 = AXIS2_PLACEMENT_3D ( 'NONE', #121, #179, #194 ) ;
#90 = ADVANCED_FACE ( 'NONE', ( #187, #74 ), #130, .T. ) ;
#91 = PERSON_AND_ORGANIZATION_ROLE ( 'classification_officer' ) ;
#92 = APPROVAL_ROLE ( '' ) ;
#93 = EDGE_LOOP ( 'NONE', ( #133 ) ) ;
#94 = CONICAL_SURFACE ( 'NONE', #183, 0.1749999999999998224, 1.029744258676649649 ) ;
#95 = CARTESIAN_POINT ( 'NONE',  ( 1.043952920314096936E-13, -3.661693929450586610E-15, 29.90000000000000213 ) ) ;
#96 = DIRECTION ( 'NONE',  ( -5.502656983963536639E-31, -1.000000000000000000, -1.548860246407865062E-16 ) ) ;
#97 = LOCAL_TIME ( 7, 16, 22.00000000000000000, #68 ) ;
#98 = ORIENTED_EDGE ( 'NONE', *, *, #127, .F. ) ;
#99 = DIRECTION ( 'NONE',  ( 3.491481338843133355E-15, -1.224646799147353207E-16, 1.000000000000000000 ) ) ;
#100 = CARTESIAN_POINT ( 'NONE',  ( 9.472097377093152391E-15, -3.322364523338022408E-16, 2.712916512459904617 ) ) ;
#101 = DESIGN_CONTEXT ( 'detailed design', #144, 'design' ) ;
#102 = CARTESIAN_POINT ( 'NONE',  ( 5.237222008264700033E-15, 0.1749999999999998224, 1.500000000000000000 ) ) ;
#103 = CLOSED_SHELL ( 'NONE', ( #17, #117, #106 ) ) ;
#104 = LOCAL_TIME ( 7, 16, 22.00000000000000000, #178 ) ;
#105 = CARTESIAN_POINT ( 'NONE',  ( 5.237222008264700033E-15, 0.1749999999999998224, 1.500000000000000000 ) ) ;
#106 = ADVANCED_FACE ( 'NONE', ( #29 ), #153, .T. ) ;
#107 = EDGE_LOOP ( 'NONE', ( #171 ) ) ;
#108 = ORIENTED_EDGE ( 'NONE', *, *, #170, .T. ) ;
#109 = FACE_OUTER_BOUND ( 'NONE', #219, .T. ) ;
#110 = EDGE_LOOP ( 'NONE', ( #207 ) ) ;
#111 = ORIENTED_EDGE ( 'NONE', *, *, #12, .F. ) ;
#112 = AXIS2_PLACEMENT_3D ( 'NONE', #23, #208, #192 ) ;
#113 = ADVANCED_BREP_SHAPE_REPRESENTATION ( '952667', ( #10, #81, #112 ), #31 ) ;
#114 = CARTESIAN_POINT ( 'NONE',  ( 1.047444401652940007E-13, -3.673940397442059178E-15, 30.00000000000000000 ) ) ;
#115 = APPLICATION_CONTEXT ( 'configuration controlled 3d designs of mechanical parts and assemblies' ) ;
#116 = CARTESIAN_POINT ( 'NONE',  ( 5.237222008264700033E-15, -1.836970198721029934E-16, 1.500000000000000000 ) ) ;
#117 = ADVANCED_FACE ( 'NONE', ( #158, #56 ), #76, .T. ) ;
#118 = DIRECTION ( 'NONE',  ( 0.0000000000000000000, 1.000000000000000000, 0.0000000000000000000 ) ) ;
#119 = CARTESIAN_POINT ( 'NONE',  ( 9.472097377093152391E-15, 0.4999999999999963363, 2.712916512459904617 ) ) ;
#120 = VERTEX_POINT ( 'NONE', #212 ) ;
#121 = CARTESIAN_POINT ( 'NONE',  ( 1.047444401652940007E-13, -3.673940397442059178E-15, 30.00000000000000000 ) ) ;
#122 = APPROVAL_PERSON_ORGANIZATION ( #83, #39, #85 ) ;
#123 = APPROVAL_STATUS ( 'not_yet_approved' ) ;
#124 = CC_DESIGN_PERSON_AND_ORGANIZATION_ASSIGNMENT ( #6, #91, ( #223 ) ) ;
#125 = APPROVAL_DATE_TIME ( #87, #189 ) ;
#126 = CONICAL_SURFACE ( 'NONE', #42, 0.4999999999999966693, 0.2617993877991428575 ) ;
#127 = EDGE_CURVE ( 'NONE', #195, #195, #154, .T. ) ;
#128 = ORIENTED_EDGE ( 'NONE', *, *, #12, .T. ) ;
#129 = CARTESIAN_POINT ( 'NONE',  ( 5.237222008264700033E-15, 1.312289809829122841E-33, 1.500000000000000000 ) ) ;
#130 = CONICAL_SURFACE ( 'NONE', #88, 0.3999999999999989675, 0.7853981633974694843 ) ;
#131 = CC_DESIGN_APPROVAL ( #141, ( #223 ) ) ;
#132 = ORIENTED_EDGE ( 'NONE', *, *, #62, .T. ) ;
#133 = ORIENTED_EDGE ( 'NONE', *, *, #176, .F. ) ;
#134 = CARTESIAN_POINT ( 'NONE',  ( 5.237222008264700033E-15, 1.312289809829122841E-33, 1.500000000000000000 ) ) ;
#135 = CIRCLE ( 'NONE', #36, 0.1750000000000000167 ) ;
#136 = ADVANCED_FACE ( 'NONE', ( #220, #221 ), #218, .T. ) ;
#137 = DIRECTION ( 'NONE',  ( 4.275831445896958607E-31, 1.000000000000000000, 1.224646799147353207E-16 ) ) ;
#138 = CARTESIAN_POINT ( 'NONE',  ( 1.043952920314096936E-13, 0.4999999999999954481, 29.90000000000000213 ) ) ;
#139 = MECHANICAL_CONTEXT ( 'NONE', #115, 'mechanical' ) ;
#140 = AXIS2_PLACEMENT_3D ( 'NONE', #95, #82, #118 ) ;
#141 = APPROVAL ( #37, 'UNSPECIFIED' ) ;
#142 = DIRECTION ( 'NONE',  ( -3.491481338843133355E-15, 1.224646799147353207E-16, -1.000000000000000000 ) ) ;
#143 = DATE_AND_TIME ( #2, #71 ) ;
#144 = APPLICATION_CONTEXT ( 'configuration controlled 3d designs of mechanical parts and assemblies' ) ;
#145 = ADVANCED_FACE ( 'NONE', ( #18 ), #216, .F. ) ;
#146 = DATE_TIME_ROLE ( 'classification_date' ) ;
#147 = COORDINATED_UNIVERSAL_TIME_OFFSET ( 1, 0, .AHEAD. ) ;
#148 = APPROVAL_DATE_TIME ( #69, #141 ) ;
#149 = CIRCLE ( 'NONE', #9, 0.1750000000000000167 ) ;
#150 = CLOSED_SHELL ( 'NONE', ( #145, #3, #136, #90, #201 ) ) ;
#151 = LOCAL_TIME ( 7, 16, 22.00000000000000000, #147 ) ;
#152 = COORDINATED_UNIVERSAL_TIME_OFFSET ( 1, 0, .AHEAD. ) ;
#153 = PLANE ( 'NONE',  #217 ) ;
#154 = CIRCLE ( 'NONE', #13, 0.4999999999999966693 ) ;
#155 = APPROVAL_PERSON_ORGANIZATION ( #167, #189, #49 ) ;
#156 = DIRECTION ( 'NONE',  ( 0.0000000000000000000, -1.000000000000000000, 0.0000000000000000000 ) ) ;
#157 = CARTESIAN_POINT ( 'NONE',  ( 0.0000000000000000000, 0.0000000000000000000, 0.0000000000000000000 ) ) ;
#158 = FACE_OUTER_BOUND ( 'NONE', #107, .T. ) ;
#159 = EDGE_CURVE ( 'NONE', #32, #32, #169, .T. ) ;
#160 = FACE_OUTER_BOUND ( 'NONE', #110, .T. ) ;
#161 = APPROVAL_STATUS ( 'not_yet_approved' ) ;
#162 = CC_DESIGN_PERSON_AND_ORGANIZATION_ASSIGNMENT ( #8, #214, ( #215 ) ) ;
#163 = COORDINATED_UNIVERSAL_TIME_OFFSET ( 1, 0, .AHEAD. ) ;
#164 = PERSON ( 'UNSPECIFIED', 'UNSPECIFIED', 'UNSPECIFIED', ('UNSPECIFIED'), ('UNSPECIFIED'), ('UNSPECIFIED') ) ;
#165 = CALENDAR_DATE ( 2021, 8, 10 ) ;
#166 = CC_DESIGN_PERSON_AND_ORGANIZATION_ASSIGNMENT ( #182, #200, ( #215 ) ) ;
#167 = PERSON_AND_ORGANIZATION ( #164, #197 ) ;
#168 = PERSON_AND_ORGANIZATION ( #164, #197 ) ;
#169 = CIRCLE ( 'NONE', #140, 0.4999999999999991673 ) ;
#170 = EDGE_CURVE ( 'NONE', #30, #30, #84, .T. ) ;
#171 = ORIENTED_EDGE ( 'NONE', *, *, #62, .F. ) ;
#172 = CC_DESIGN_PERSON_AND_ORGANIZATION_ASSIGNMENT ( #19, #80, ( #7 ) ) ;
#173 = DIRECTION ( 'NONE',  ( 4.275831445896958607E-31, 1.000000000000000000, 1.224646799147353207E-16 ) ) ;
#174 = DIRECTION ( 'NONE',  ( 0.0000000000000000000, 1.000000000000000000, 0.0000000000000000000 ) ) ;
#175 = DIRECTION ( 'NONE',  ( -4.275831445896958607E-31, -1.000000000000000000, -1.224646799147353207E-16 ) ) ;
#176 = EDGE_CURVE ( 'NONE', #46, #46, #135, .T. ) ;
#177 = EDGE_LOOP ( 'NONE', ( #40 ) ) ;
#178 = COORDINATED_UNIVERSAL_TIME_OFFSET ( 1, 0, .AHEAD. ) ;
#179 = DIRECTION ( 'NONE',  ( -3.491481338843133355E-15, 1.224646799147353207E-16, -1.000000000000000000 ) ) ;
#180 = APPLICATION_PROTOCOL_DEFINITION ( 'international standard', 'config_control_design', 1994, #115 ) ;
#181 = CARTESIAN_POINT ( 'NONE',  ( 1.047444401652940007E-13, 0.3999999999999953038, 30.00000000000000000 ) ) ;
#182 = PERSON_AND_ORGANIZATION ( #164, #197 ) ;
#183 = AXIS2_PLACEMENT_3D ( 'NONE', #11, #203, #96 ) ;
#184 = AXIS2_PLACEMENT_3D ( 'NONE', #209, #198, #213 ) ;
#185 = EDGE_LOOP ( 'NONE', ( #34 ) ) ;
#186 = DIRECTION ( 'NONE',  ( 3.491481338843133355E-15, -1.224646799147353207E-16, 1.000000000000000000 ) ) ;
#187 = FACE_OUTER_BOUND ( 'NONE', #77, .T. ) ;
#188 = CARTESIAN_POINT ( 'NONE',  ( 3.671313867515841497E-16, -1.287723559195160845E-17, 0.1051506083298240912 ) ) ;
#189 = APPROVAL ( #123, 'UNSPECIFIED' ) ;
#190 = CARTESIAN_POINT ( 'NONE',  ( 9.472097377093152391E-15, -3.322364523338022408E-16, 2.712916512459904617 ) ) ;
#191 = DIRECTION ( 'NONE',  ( -3.491481338843133355E-15, 1.224646799147353207E-16, -1.000000000000000000 ) ) ;
#192 = DIRECTION ( 'NONE',  ( 1.000000000000000000, 0.0000000000000000000, 0.0000000000000000000 ) ) ;
#193 = PRODUCT_DEFINITION ( 'UNKNOWN', '', #215, #101 ) ;
#194 = DIRECTION ( 'NONE',  ( 0.0000000000000000000, 1.000000000000000000, 0.0000000000000000000 ) ) ;
#195 = VERTEX_POINT ( 'NONE', #119 ) ;
#196 = AXIS2_PLACEMENT_3D ( 'NONE', #188, #28, #57 ) ;
#197 = ORGANIZATION ( 'UNSPECIFIED', 'UNSPECIFIED', '' ) ;
#198 = DIRECTION ( 'NONE',  ( -3.491481338843133355E-15, 1.224646799147353207E-16, -1.000000000000000000 ) ) ;
#199 = CALENDAR_DATE ( 2021, 8, 10 ) ;
#200 = PERSON_AND_ORGANIZATION_ROLE ( 'design_supplier' ) ;
#201 = ADVANCED_FACE ( 'NONE', ( #160 ), #61, .F. ) ;
#202 = CC_DESIGN_APPROVAL ( #189, ( #215 ) ) ;
#203 = DIRECTION ( 'NONE',  ( 3.491481338843133355E-15, -1.224646799147353207E-16, 1.000000000000000000 ) ) ;
#204 = EDGE_LOOP ( 'NONE', ( #108 ) ) ;
#205 = DIRECTION ( 'NONE',  ( 0.0000000000000000000, 1.000000000000000000, 0.0000000000000000000 ) ) ;
#206 = LOCAL_TIME ( 7, 16, 22.00000000000000000, #152 ) ;
#207 = ORIENTED_EDGE ( 'NONE', *, *, #170, .F. ) ;
#208 = DIRECTION ( 'NONE',  ( 0.0000000000000000000, 0.0000000000000000000, 1.000000000000000000 ) ) ;
#209 = CARTESIAN_POINT ( 'NONE',  ( 1.047444401652940007E-13, 2.999519565323652267E-33, 30.00000000000000000 ) ) ;
#210 = CC_DESIGN_APPROVAL ( #39, ( #193 ) ) ;
#211 =( NAMED_UNIT ( * ) PLANE_ANGLE_UNIT ( ) SI_UNIT ( $, .RADIAN. ) );
#212 = CARTESIAN_POINT ( 'NONE',  ( 3.671313867515842483E-16, 0.1749999999999998224, 0.1051506083298241190 ) ) ;
#213 = DIRECTION ( 'NONE',  ( 4.275831445896958607E-31, 1.000000000000000000, 1.224646799147353207E-16 ) ) ;
#214 = PERSON_AND_ORGANIZATION_ROLE ( 'creator' ) ;
#215 = PRODUCT_DEFINITION_FORMATION_WITH_SPECIFIED_SOURCE ( 'ANY', '', #7, .NOT_KNOWN. ) ;
#216 = PLANE ( 'NONE',  #67 ) ;
#217 = AXIS2_PLACEMENT_3D ( 'NONE', #134, #99, #175 ) ;
#218 = CYLINDRICAL_SURFACE ( 'NONE', #51, 0.4999999999999978351 ) ;
#219 = EDGE_LOOP ( 'NONE', ( #132 ) ) ;
#220 = FACE_OUTER_BOUND ( 'NONE', #53, .T. ) ;
#221 = FACE_OUTER_BOUND ( 'NONE', #27, .T. ) ;
#222 = CIRCLE ( 'NONE', #196, 0.1749999999999998224 ) ;
#223 = SECURITY_CLASSIFICATION ( '', '', #50 ) ;
ENDSEC;
END-ISO-10303-21;
