ISO-10303-21;
HEADER;
FILE_DESCRIPTION (( 'STEP AP203' ),
    '1' );
FILE_NAME ('952666.step',
    '2021-10-08T05:16:21',
    ( '' ),
    ( '' ),
    'SwSTEP 2.0',
    'SolidWorks 2019',
    '' );
FILE_SCHEMA (( 'CONFIG_CONTROL_DESIGN' ));
ENDSEC;

DATA;
#1 = EDGE_LOOP ( 'NONE', ( #142 ) ) ;
#2 = EDGE_CURVE ( 'NONE', #48, #48, #123, .T. ) ;
#3 = ORIENTED_EDGE ( 'NONE', *, *, #213, .T. ) ;
#4 = FACE_OUTER_BOUND ( 'NONE', #141, .T. ) ;
#5 = ADVANCED_FACE ( 'NONE', ( #211, #106 ), #10, .T. ) ;
#6 =( NAMED_UNIT ( * ) PLANE_ANGLE_UNIT ( ) SI_UNIT ( $, .RADIAN. ) );
#7 = MANIFOLD_SOLID_BREP ( 'Corps-Déplacer/Copier1[2]', #21 ) ;
#8 = CARTESIAN_POINT ( 'NONE',  ( 1.043952920314096936E-13, 0.4999999999999954481, 29.90000000000000213 ) ) ;
#9 = DIRECTION ( 'NONE',  ( -3.491481338843133355E-15, 1.224646799147353207E-16, -1.000000000000000000 ) ) ;
#10 = CONICAL_SURFACE ( 'NONE', #166, 0.4999999999999966693, 0.2617993877991426910 ) ;
#11 = AXIS2_PLACEMENT_3D ( 'NONE', #81, #93, #82 ) ;
#12 = PLANE ( 'NONE',  #117 ) ;
#13 = EDGE_CURVE ( 'NONE', #113, #113, #56, .T. ) ;
#14 = DIRECTION ( 'NONE',  ( 3.491481338843133355E-15, -1.224646799147353207E-16, 1.000000000000000000 ) ) ;
#15 = PERSON_AND_ORGANIZATION ( #28, #155 ) ;
#16 = APPROVAL_DATE_TIME ( #119, #137 ) ;
#17 = EDGE_LOOP ( 'NONE', ( #192 ) ) ;
#18 = ORIENTED_EDGE ( 'NONE', *, *, #2, .F. ) ;
#19 = CLOSED_SHELL ( 'NONE', ( #151, #5, #223, #50, #193 ) ) ;
#20 = CC_DESIGN_PERSON_AND_ORGANIZATION_ASSIGNMENT ( #99, #134, ( #60 ) ) ;
#21 = CLOSED_SHELL ( 'NONE', ( #58, #25, #115 ) ) ;
#22 = EDGE_LOOP ( 'NONE', ( #214 ) ) ;
#23 = CIRCLE ( 'NONE', #198, 0.3999999999999989675 ) ;
#24 = DIRECTION ( 'NONE',  ( 3.491481338843133355E-15, -1.224646799147353207E-16, 1.000000000000000000 ) ) ;
#25 = ADVANCED_FACE ( 'NONE', ( #122, #4 ), #76, .T. ) ;
#26 = PLANE ( 'NONE',  #11 ) ;
#27 =( GEOMETRIC_REPRESENTATION_CONTEXT ( 3 ) GLOBAL_UNCERTAINTY_ASSIGNED_CONTEXT ( ( #210 ) ) GLOBAL_UNIT_ASSIGNED_CONTEXT ( ( #146, #6, #199 ) ) REPRESENTATION_CONTEXT ( 'NONE', 'WORKASPACE' ) );
#28 = PERSON ( 'UNSPECIFIED', 'UNSPECIFIED', 'UNSPECIFIED', ('UNSPECIFIED'), ('UNSPECIFIED'), ('UNSPECIFIED') ) ;
#29 = CARTESIAN_POINT ( 'NONE',  ( 5.237222008264700033E-15, -1.836970198721029934E-16, 1.500000000000000000 ) ) ;
#30 = FACE_OUTER_BOUND ( 'NONE', #75, .T. ) ;
#31 = PRODUCT_DEFINITION_SHAPE ( 'NONE', 'NONE',  #68 ) ;
#32 = VERTEX_POINT ( 'NONE', #92 ) ;
#33 = DIRECTION ( 'NONE',  ( -4.275831445896958607E-31, -1.000000000000000000, -1.224646799147353207E-16 ) ) ;
#34 = PERSON_AND_ORGANIZATION ( #28, #155 ) ;
#35 = EDGE_CURVE ( 'NONE', #32, #32, #94, .T. ) ;
#36 = DIRECTION ( 'NONE',  ( 0.0000000000000000000, 0.0000000000000000000, 1.000000000000000000 ) ) ;
#37 = AXIS2_PLACEMENT_3D ( 'NONE', #77, #182, #179 ) ;
#38 = CALENDAR_DATE ( 2021, 8, 10 ) ;
#39 = SECURITY_CLASSIFICATION_LEVEL ( 'unclassified' ) ;
#40 = DATE_TIME_ROLE ( 'classification_date' ) ;
#41 = DIRECTION ( 'NONE',  ( 4.275831445896958607E-31, 1.000000000000000000, 1.224646799147353207E-16 ) ) ;
#42 = CC_DESIGN_DATE_AND_TIME_ASSIGNMENT ( #189, #40, ( #143 ) ) ;
#43 = CARTESIAN_POINT ( 'NONE',  ( 5.237222008264700033E-15, -1.836970198721029934E-16, 1.500000000000000000 ) ) ;
#44 = LOCAL_TIME ( 7, 16, 21.00000000000000000, #203 ) ;
#45 = EDGE_LOOP ( 'NONE', ( #156 ) ) ;
#46 = ORIENTED_EDGE ( 'NONE', *, *, #197, .T. ) ;
#47 = CARTESIAN_POINT ( 'NONE',  ( 0.0000000000000000000, 0.0000000000000000000, 0.0000000000000000000 ) ) ;
#48 = VERTEX_POINT ( 'NONE', #110 ) ;
#49 = VERTEX_POINT ( 'NONE', #8 ) ;
#50 = ADVANCED_FACE ( 'NONE', ( #87, #161 ), #132, .T. ) ;
#51 = CARTESIAN_POINT ( 'NONE',  ( 1.043952920314096936E-13, -3.661693929450586610E-15, 29.90000000000000213 ) ) ;
#52 = CARTESIAN_POINT ( 'NONE',  ( 3.566419185586816694E-16, -1.250931457503870495E-17, 0.1021463052346862493 ) ) ;
#53 = DATE_AND_TIME ( #100, #209 ) ;
#54 = APPROVAL_ROLE ( '' ) ;
#55 = CALENDAR_DATE ( 2021, 8, 10 ) ;
#56 = CIRCLE ( 'NONE', #135, 0.4999999999999966693 ) ;
#57 = APPROVAL_PERSON_ORGANIZATION ( #97, #137, #138 ) ;
#58 = ADVANCED_FACE ( 'NONE', ( #201 ), #169, .T. ) ;
#59 = APPROVAL_DATE_TIME ( #53, #183 ) ;
#60 = PRODUCT_DEFINITION_FORMATION_WITH_SPECIFIED_SOURCE ( 'ANY', '', #148, .NOT_KNOWN. ) ;
#61 = DIRECTION ( 'NONE',  ( 0.0000000000000000000, -1.000000000000000000, 0.0000000000000000000 ) ) ;
#62 = DIRECTION ( 'NONE',  ( 0.0000000000000000000, 1.000000000000000000, 0.0000000000000000000 ) ) ;
#63 = LOCAL_TIME ( 7, 16, 21.00000000000000000, #133 ) ;
#64 = CYLINDRICAL_SURFACE ( 'NONE', #98, 0.4999999999999978351 ) ;
#65 = DIRECTION ( 'NONE',  ( -3.491481338843133355E-15, 1.224646799147353207E-16, -1.000000000000000000 ) ) ;
#66 = FACE_OUTER_BOUND ( 'NONE', #215, .T. ) ;
#67 = CC_DESIGN_APPROVAL ( #183, ( #143 ) ) ;
#68 = PRODUCT_DEFINITION ( 'UNKNOWN', '', #60, #89 ) ;
#69 = CARTESIAN_POINT ( 'NONE',  ( 5.237222008264700033E-15, 1.274795815262576298E-33, 1.500000000000000000 ) ) ;
#70 = CARTESIAN_POINT ( 'NONE',  ( 5.237222008264700033E-15, 1.274795815262576298E-33, 1.500000000000000000 ) ) ;
#71 = APPROVAL_STATUS ( 'not_yet_approved' ) ;
#72 = COORDINATED_UNIVERSAL_TIME_OFFSET ( 1, 0, .AHEAD. ) ;
#73 = CIRCLE ( 'NONE', #160, 0.4999999999999991673 ) ;
#74 = CARTESIAN_POINT ( 'NONE',  ( 0.0000000000000000000, 0.0000000000000000000, 0.0000000000000000000 ) ) ;
#75 = EDGE_LOOP ( 'NONE', ( #158 ) ) ;
#76 = CYLINDRICAL_SURFACE ( 'NONE', #221, 0.1699999999999999012 ) ;
#77 = CARTESIAN_POINT ( 'NONE',  ( 1.047444401652940007E-13, -3.673940397442059178E-15, 30.00000000000000000 ) ) ;
#78 = VERTEX_POINT ( 'NONE', #176 ) ;
#79 = APPROVAL ( #116, 'UNSPECIFIED' ) ;
#80 = ADVANCED_BREP_SHAPE_REPRESENTATION ( '952666', ( #159, #7, #83 ), #27 ) ;
#81 = CARTESIAN_POINT ( 'NONE',  ( 1.047444401652940007E-13, 2.999519565323652267E-33, 30.00000000000000000 ) ) ;
#82 = DIRECTION ( 'NONE',  ( 4.275831445896958607E-31, 1.000000000000000000, 1.224646799147353207E-16 ) ) ;
#83 = AXIS2_PLACEMENT_3D ( 'NONE', #74, #36, #130 ) ;
#84 = APPROVAL_DATE_TIME ( #96, #79 ) ;
#85 = CC_DESIGN_PERSON_AND_ORGANIZATION_ASSIGNMENT ( #15, #101, ( #143 ) ) ;
#86 = ORIENTED_EDGE ( 'NONE', *, *, #207, .T. ) ;
#87 = FACE_OUTER_BOUND ( 'NONE', #1, .T. ) ;
#88 = APPLICATION_CONTEXT ( 'configuration controlled 3d designs of mechanical parts and assemblies' ) ;
#89 = DESIGN_CONTEXT ( 'detailed design', #88, 'design' ) ;
#90 = AXIS2_PLACEMENT_3D ( 'NONE', #43, #102, #173 ) ;
#91 = CC_DESIGN_DATE_AND_TIME_ASSIGNMENT ( #186, #152, ( #68 ) ) ;
#92 = CARTESIAN_POINT ( 'NONE',  ( 5.237222008264700033E-15, 0.1699999999999998179, 1.500000000000000000 ) ) ;
#93 = DIRECTION ( 'NONE',  ( -3.491481338843133355E-15, 1.224646799147353207E-16, -1.000000000000000000 ) ) ;
#94 = CIRCLE ( 'NONE', #90, 0.1700000000000000122 ) ;
#95 = CARTESIAN_POINT ( 'NONE',  ( 9.537249305844362239E-15, 0.4999999999999963363, 2.731576766497750164 ) ) ;
#96 = DATE_AND_TIME ( #55, #177 ) ;
#97 = PERSON_AND_ORGANIZATION ( #28, #155 ) ;
#98 = AXIS2_PLACEMENT_3D ( 'NONE', #47, #9, #107 ) ;
#99 = PERSON_AND_ORGANIZATION ( #28, #155 ) ;
#100 = CALENDAR_DATE ( 2021, 8, 10 ) ;
#101 = PERSON_AND_ORGANIZATION_ROLE ( 'classification_officer' ) ;
#102 = DIRECTION ( 'NONE',  ( -3.491481338843133355E-15, 1.224646799147353207E-16, -1.000000000000000000 ) ) ;
#103 = ORIENTED_EDGE ( 'NONE', *, *, #35, .F. ) ;
#104 = AXIS2_PLACEMENT_3D ( 'NONE', #29, #145, #149 ) ;
#105 = CC_DESIGN_PERSON_AND_ORGANIZATION_ASSIGNMENT ( #202, #118, ( #68 ) ) ;
#106 = FACE_OUTER_BOUND ( 'NONE', #162, .T. ) ;
#107 = DIRECTION ( 'NONE',  ( 4.275831445896958607E-31, 1.000000000000000000, 1.224646799147353207E-16 ) ) ;
#108 = CC_DESIGN_PERSON_AND_ORGANIZATION_ASSIGNMENT ( #34, #154, ( #60 ) ) ;
#109 = CC_DESIGN_SECURITY_CLASSIFICATION ( #143, ( #60 ) ) ;
#110 = CARTESIAN_POINT ( 'NONE',  ( 3.566419185586817680E-16, 0.1699999999999998179, 0.1021463052346862771 ) ) ;
#111 = FACE_OUTER_BOUND ( 'NONE', #17, .T. ) ;
#112 = DIRECTION ( 'NONE',  ( -4.275831445896958607E-31, -1.000000000000000000, -1.224646799147353207E-16 ) ) ;
#113 = VERTEX_POINT ( 'NONE', #95 ) ;
#114 = APPROVAL_STATUS ( 'not_yet_approved' ) ;
#115 = ADVANCED_FACE ( 'NONE', ( #66 ), #12, .T. ) ;
#116 = APPROVAL_STATUS ( 'not_yet_approved' ) ;
#117 = AXIS2_PLACEMENT_3D ( 'NONE', #69, #200, #112 ) ;
#118 = PERSON_AND_ORGANIZATION_ROLE ( 'creator' ) ;
#119 = DATE_AND_TIME ( #188, #63 ) ;
#120 = DIRECTION ( 'NONE',  ( -3.491481338843133355E-15, 1.224646799147353207E-16, -1.000000000000000000 ) ) ;
#121 = CARTESIAN_POINT ( 'NONE',  ( 9.537249305844362239E-15, -3.345216743716746602E-16, 2.731576766497750164 ) ) ;
#122 = FACE_OUTER_BOUND ( 'NONE', #194, .T. ) ;
#123 = CIRCLE ( 'NONE', #131, 0.1699999999999998179 ) ;
#124 = APPROVAL_PERSON_ORGANIZATION ( #204, #79, #168 ) ;
#125 = EDGE_LOOP ( 'NONE', ( #46 ) ) ;
#126 = VERTEX_POINT ( 'NONE', #195 ) ;
#127 = DIRECTION ( 'NONE',  ( 0.0000000000000000000, 1.000000000000000000, 0.0000000000000000000 ) ) ;
#128 = APPLICATION_CONTEXT ( 'configuration controlled 3d designs of mechanical parts and assemblies' ) ;
#129 = DIRECTION ( 'NONE',  ( 0.0000000000000000000, 1.000000000000000000, 0.0000000000000000000 ) ) ;
#130 = DIRECTION ( 'NONE',  ( 1.000000000000000000, 0.0000000000000000000, 0.0000000000000000000 ) ) ;
#131 = AXIS2_PLACEMENT_3D ( 'NONE', #140, #120, #212 ) ;
#132 = CONICAL_SURFACE ( 'NONE', #37, 0.3999999999999989675, 0.7853981633974694843 ) ;
#133 = COORDINATED_UNIVERSAL_TIME_OFFSET ( 1, 0, .AHEAD. ) ;
#134 = PERSON_AND_ORGANIZATION_ROLE ( 'creator' ) ;
#135 = AXIS2_PLACEMENT_3D ( 'NONE', #121, #163, #62 ) ;
#136 = AXIS2_PLACEMENT_3D ( 'NONE', #70, #14, #33 ) ;
#137 = APPROVAL ( #114, 'UNSPECIFIED' ) ;
#138 = APPROVAL_ROLE ( '' ) ;
#139 = ORIENTED_EDGE ( 'NONE', *, *, #13, .T. ) ;
#140 = CARTESIAN_POINT ( 'NONE',  ( 3.566419185586816694E-16, -1.250931457503870495E-17, 0.1021463052346862493 ) ) ;
#141 = EDGE_LOOP ( 'NONE', ( #208 ) ) ;
#142 = ORIENTED_EDGE ( 'NONE', *, *, #207, .F. ) ;
#143 = SECURITY_CLASSIFICATION ( '', '', #39 ) ;
#144 = DIRECTION ( 'NONE',  ( -3.491481338843133355E-15, 1.224646799147353207E-16, -1.000000000000000000 ) ) ;
#145 = DIRECTION ( 'NONE',  ( -3.491481338843133355E-15, 1.224646799147353207E-16, -1.000000000000000000 ) ) ;
#146 =( LENGTH_UNIT ( ) NAMED_UNIT ( * ) SI_UNIT ( .MILLI., .METRE. ) );
#147 = CC_DESIGN_APPROVAL ( #137, ( #68 ) ) ;
#148 = PRODUCT ( '952666', '952666', '', ( #206 ) ) ;
#149 = DIRECTION ( 'NONE',  ( 0.0000000000000000000, 1.000000000000000000, 0.0000000000000000000 ) ) ;
#150 = FACE_OUTER_BOUND ( 'NONE', #175, .T. ) ;
#151 = ADVANCED_FACE ( 'NONE', ( #217 ), #178, .F. ) ;
#152 = DATE_TIME_ROLE ( 'creation_date' ) ;
#153 = PERSON_AND_ORGANIZATION ( #28, #155 ) ;
#154 = PERSON_AND_ORGANIZATION_ROLE ( 'design_supplier' ) ;
#155 = ORGANIZATION ( 'UNSPECIFIED', 'UNSPECIFIED', '' ) ;
#156 = ORIENTED_EDGE ( 'NONE', *, *, #197, .F. ) ;
#157 = CC_DESIGN_PERSON_AND_ORGANIZATION_ASSIGNMENT ( #171, #218, ( #148 ) ) ;
#158 = ORIENTED_EDGE ( 'NONE', *, *, #213, .F. ) ;
#159 = MANIFOLD_SOLID_BREP ( 'Corps-Déplacer/Copier1[1]', #19 ) ;
#160 = AXIS2_PLACEMENT_3D ( 'NONE', #51, #65, #129 ) ;
#161 = FACE_BOUND ( 'NONE', #190, .T. ) ;
#162 = EDGE_LOOP ( 'NONE', ( #139 ) ) ;
#163 = DIRECTION ( 'NONE',  ( -3.491481338843133355E-15, 1.224646799147353207E-16, -1.000000000000000000 ) ) ;
#164 = CC_DESIGN_APPROVAL ( #79, ( #60 ) ) ;
#165 = DIRECTION ( 'NONE',  ( -5.664499836433052448E-31, -1.000000000000000000, -1.594414959537508159E-16 ) ) ;
#166 = AXIS2_PLACEMENT_3D ( 'NONE', #174, #24, #61 ) ;
#167 = LOCAL_TIME ( 7, 16, 21.00000000000000000, #72 ) ;
#168 = APPROVAL_ROLE ( '' ) ;
#169 = CONICAL_SURFACE ( 'NONE', #181, 0.1699999999999998179, 1.029744258676649871 ) ;
#170 = APPLICATION_PROTOCOL_DEFINITION ( 'international standard', 'config_control_design', 1994, #128 ) ;
#171 = PERSON_AND_ORGANIZATION ( #28, #155 ) ;
#172 = SHAPE_DEFINITION_REPRESENTATION ( #31, #80 ) ;
#173 = DIRECTION ( 'NONE',  ( 0.0000000000000000000, 1.000000000000000000, 0.0000000000000000000 ) ) ;
#174 = CARTESIAN_POINT ( 'NONE',  ( 9.537249305844362239E-15, -3.345216743716746602E-16, 2.731576766497750164 ) ) ;
#175 = EDGE_LOOP ( 'NONE', ( #86 ) ) ;
#176 = CARTESIAN_POINT ( 'NONE',  ( 1.047444401652940007E-13, 0.3999999999999953038, 30.00000000000000000 ) ) ;
#177 = LOCAL_TIME ( 7, 16, 21.00000000000000000, #185 ) ;
#178 = PLANE ( 'NONE',  #136 ) ;
#179 = DIRECTION ( 'NONE',  ( 0.0000000000000000000, 1.000000000000000000, 0.0000000000000000000 ) ) ;
#180 = DIRECTION ( 'NONE',  ( -3.491481338843133355E-15, 1.224646799147353207E-16, -1.000000000000000000 ) ) ;
#181 = AXIS2_PLACEMENT_3D ( 'NONE', #52, #196, #165 ) ;
#182 = DIRECTION ( 'NONE',  ( -3.491481338843133355E-15, 1.224646799147353207E-16, -1.000000000000000000 ) ) ;
#183 = APPROVAL ( #71, 'UNSPECIFIED' ) ;
#184 = COORDINATED_UNIVERSAL_TIME_OFFSET ( 1, 0, .AHEAD. ) ;
#185 = COORDINATED_UNIVERSAL_TIME_OFFSET ( 1, 0, .AHEAD. ) ;
#186 = DATE_AND_TIME ( #38, #44 ) ;
#187 = PRODUCT_RELATED_PRODUCT_CATEGORY ( 'detail', '', ( #148 ) ) ;
#188 = CALENDAR_DATE ( 2021, 8, 10 ) ;
#189 = DATE_AND_TIME ( #220, #167 ) ;
#190 = EDGE_LOOP ( 'NONE', ( #3 ) ) ;
#191 = CARTESIAN_POINT ( 'NONE',  ( 0.0000000000000000000, 0.0000000000000000000, 0.0000000000000000000 ) ) ;
#192 = ORIENTED_EDGE ( 'NONE', *, *, #13, .F. ) ;
#193 = ADVANCED_FACE ( 'NONE', ( #30 ), #26, .F. ) ;
#194 = EDGE_LOOP ( 'NONE', ( #18 ) ) ;
#195 = CARTESIAN_POINT ( 'NONE',  ( 5.237222008264700033E-15, 0.1699999999999998179, 1.500000000000000000 ) ) ;
#196 = DIRECTION ( 'NONE',  ( 3.491481338843133355E-15, -1.224646799147353207E-16, 1.000000000000000000 ) ) ;
#197 = EDGE_CURVE ( 'NONE', #126, #126, #219, .T. ) ;
#198 = AXIS2_PLACEMENT_3D ( 'NONE', #216, #180, #127 ) ;
#199 =( NAMED_UNIT ( * ) SI_UNIT ( $, .STERADIAN. ) SOLID_ANGLE_UNIT ( ) );
#200 = DIRECTION ( 'NONE',  ( 3.491481338843133355E-15, -1.224646799147353207E-16, 1.000000000000000000 ) ) ;
#201 = FACE_OUTER_BOUND ( 'NONE', #22, .T. ) ;
#202 = PERSON_AND_ORGANIZATION ( #28, #155 ) ;
#203 = COORDINATED_UNIVERSAL_TIME_OFFSET ( 1, 0, .AHEAD. ) ;
#204 = PERSON_AND_ORGANIZATION ( #28, #155 ) ;
#205 = APPLICATION_PROTOCOL_DEFINITION ( 'international standard', 'config_control_design', 1994, #88 ) ;
#206 = MECHANICAL_CONTEXT ( 'NONE', #128, 'mechanical' ) ;
#207 = EDGE_CURVE ( 'NONE', #49, #49, #73, .T. ) ;
#208 = ORIENTED_EDGE ( 'NONE', *, *, #35, .T. ) ;
#209 = LOCAL_TIME ( 7, 16, 21.00000000000000000, #184 ) ;
#210 = UNCERTAINTY_MEASURE_WITH_UNIT (LENGTH_MEASURE( 1.000000000000000082E-05 ), #146, 'distance_accuracy_value', 'NONE');
#211 = FACE_BOUND ( 'NONE', #45, .T. ) ;
#212 = DIRECTION ( 'NONE',  ( 5.664499836433052448E-31, 1.000000000000000000, 1.594414959537508159E-16 ) ) ;
#213 = EDGE_CURVE ( 'NONE', #78, #78, #23, .T. ) ;
#214 = ORIENTED_EDGE ( 'NONE', *, *, #2, .T. ) ;
#215 = EDGE_LOOP ( 'NONE', ( #103 ) ) ;
#216 = CARTESIAN_POINT ( 'NONE',  ( 1.047444401652940007E-13, -3.673940397442059178E-15, 30.00000000000000000 ) ) ;
#217 = FACE_OUTER_BOUND ( 'NONE', #125, .T. ) ;
#218 = PERSON_AND_ORGANIZATION_ROLE ( 'design_owner' ) ;
#219 = CIRCLE ( 'NONE', #104, 0.1700000000000000122 ) ;
#220 = CALENDAR_DATE ( 2021, 8, 10 ) ;
#221 = AXIS2_PLACEMENT_3D ( 'NONE', #191, #144, #41 ) ;
#222 = APPROVAL_PERSON_ORGANIZATION ( #153, #183, #54 ) ;
#223 = ADVANCED_FACE ( 'NONE', ( #111, #150 ), #64, .T. ) ;
ENDSEC;
END-ISO-10303-21;
