ISO-10303-21;
HEADER;
FILE_DESCRIPTION (( 'STEP AP203' ),
    '1' );
FILE_NAME ('952665.step',
    '2021-10-08T05:16:21',
    ( '' ),
    ( '' ),
    'SwSTEP 2.0',
    'SolidWorks 2019',
    '' );
FILE_SCHEMA (( 'CONFIG_CONTROL_DESIGN' ));
ENDSEC;

DATA;
#1 = DATE_AND_TIME ( #160, #150 ) ;
#2 = CARTESIAN_POINT ( 'NONE',  ( 5.237222008264700033E-15, 0.1649999999999998690, 1.500000000000000000 ) ) ;
#3 = PERSON_AND_ORGANIZATION ( #183, #137 ) ;
#4 = EDGE_LOOP ( 'NONE', ( #47 ) ) ;
#5 = COORDINATED_UNIVERSAL_TIME_OFFSET ( 1, 0, .AHEAD. ) ;
#6 = APPLICATION_PROTOCOL_DEFINITION ( 'international standard', 'config_control_design', 1994, #54 ) ;
#7 = CC_DESIGN_APPROVAL ( #92, ( #110 ) ) ;
#8 = APPROVAL ( #113, 'UNSPECIFIED' ) ;
#9 = DATE_TIME_ROLE ( 'classification_date' ) ;
#10 = CARTESIAN_POINT ( 'NONE',  ( 0.0000000000000000000, 0.0000000000000000000, 0.0000000000000000000 ) ) ;
#11 = FACE_OUTER_BOUND ( 'NONE', #187, .T. ) ;
#12 = DIRECTION ( 'NONE',  ( -3.491481338843133355E-15, 1.224646799147353207E-16, -1.000000000000000000 ) ) ;
#13 = DIRECTION ( 'NONE',  ( -2.918075673313996955E-31, -1.000000000000000000, -8.213652821859891190E-17 ) ) ;
#14 = ADVANCED_FACE ( 'NONE', ( #117 ), #181, .F. ) ;
#15 = APPROVAL_PERSON_ORGANIZATION ( #129, #92, #95 ) ;
#16 = CARTESIAN_POINT ( 'NONE',  ( 1.043952920314096936E-13, -3.661693929450586610E-15, 29.90000000000000213 ) ) ;
#17 = PRODUCT ( '952665', '952665', '', ( #112 ) ) ;
#18 = COORDINATED_UNIVERSAL_TIME_OFFSET ( 1, 0, .AHEAD. ) ;
#19 = DIRECTION ( 'NONE',  ( 1.000000000000000000, 0.0000000000000000000, 0.0000000000000000000 ) ) ;
#20 = AXIS2_PLACEMENT_3D ( 'NONE', #151, #75, #189 ) ;
#21 = EDGE_CURVE ( 'NONE', #168, #168, #133, .T. ) ;
#22 = CC_DESIGN_SECURITY_CLASSIFICATION ( #30, ( #110 ) ) ;
#23 = PERSON_AND_ORGANIZATION ( #183, #137 ) ;
#24 = EDGE_LOOP ( 'NONE', ( #197 ) ) ;
#25 = APPROVAL_ROLE ( '' ) ;
#26 = EDGE_LOOP ( 'NONE', ( #98 ) ) ;
#27 = APPROVAL_DATE_TIME ( #97, #8 ) ;
#28 = ADVANCED_FACE ( 'NONE', ( #143 ), #144, .T. ) ;
#29 = ORIENTED_EDGE ( 'NONE', *, *, #118, .F. ) ;
#30 = SECURITY_CLASSIFICATION ( '', '', #135 ) ;
#31 = CIRCLE ( 'NONE', #124, 0.4999999999999966693 ) ;
#32 = CYLINDRICAL_SURFACE ( 'NONE', #35, 0.1649999999999999523 ) ;
#33 = CC_DESIGN_PERSON_AND_ORGANIZATION_ASSIGNMENT ( #175, #43, ( #17 ) ) ;
#34 = DIRECTION ( 'NONE',  ( 3.491481338843133355E-15, -1.224646799147353207E-16, 1.000000000000000000 ) ) ;
#35 = AXIS2_PLACEMENT_3D ( 'NONE', #10, #103, #55 ) ;
#36 = CARTESIAN_POINT ( 'NONE',  ( 1.047444401652940007E-13, -3.673940397442059178E-15, 30.00000000000000000 ) ) ;
#37 = CARTESIAN_POINT ( 'NONE',  ( 3.461524503657794848E-16, 0.1649999999999998135, 0.09914200213954847685 ) ) ;
#38 = DIRECTION ( 'NONE',  ( -4.275831445896958607E-31, -1.000000000000000000, -1.224646799147353207E-16 ) ) ;
#39 = AXIS2_PLACEMENT_3D ( 'NONE', #57, #58, #125 ) ;
#40 = PERSON_AND_ORGANIZATION_ROLE ( 'classification_officer' ) ;
#41 = COORDINATED_UNIVERSAL_TIME_OFFSET ( 1, 0, .AHEAD. ) ;
#42 = APPROVAL ( #119, 'UNSPECIFIED' ) ;
#43 = PERSON_AND_ORGANIZATION_ROLE ( 'design_owner' ) ;
#44 = APPROVAL_PERSON_ORGANIZATION ( #210, #8, #25 ) ;
#45 = ORIENTED_EDGE ( 'NONE', *, *, #74, .T. ) ;
#46 = PRODUCT_DEFINITION_SHAPE ( 'NONE', 'NONE',  #126 ) ;
#47 = ORIENTED_EDGE ( 'NONE', *, *, #186, .T. ) ;
#48 = APPROVAL_DATE_TIME ( #102, #42 ) ;
#49 = EDGE_LOOP ( 'NONE', ( #100 ) ) ;
#50 = AXIS2_PLACEMENT_3D ( 'NONE', #127, #34, #38 ) ;
#51 = ADVANCED_FACE ( 'NONE', ( #192, #91 ), #178, .T. ) ;
#52 = EDGE_LOOP ( 'NONE', ( #66 ) ) ;
#53 = DIRECTION ( 'NONE',  ( -3.491481338843133355E-15, 1.224646799147353207E-16, -1.000000000000000000 ) ) ;
#54 = APPLICATION_CONTEXT ( 'configuration controlled 3d designs of mechanical parts and assemblies' ) ;
#55 = DIRECTION ( 'NONE',  ( 4.275831445896957731E-31, 1.000000000000000000, 1.224646799147353207E-16 ) ) ;
#56 = CARTESIAN_POINT ( 'NONE',  ( 9.602401234595568931E-15, -3.368068964095469809E-16, 2.750237020535594823 ) ) ;
#57 = CARTESIAN_POINT ( 'NONE',  ( 1.047444401652940007E-13, -3.673940397442059178E-15, 30.00000000000000000 ) ) ;
#58 = DIRECTION ( 'NONE',  ( -3.491481338843133355E-15, 1.224646799147353207E-16, -1.000000000000000000 ) ) ;
#59 = UNCERTAINTY_MEASURE_WITH_UNIT (LENGTH_MEASURE( 1.000000000000000082E-05 ), #147, 'distance_accuracy_value', 'NONE');
#60 = VERTEX_POINT ( 'NONE', #198 ) ;
#61 = CC_DESIGN_PERSON_AND_ORGANIZATION_ASSIGNMENT ( #93, #40, ( #30 ) ) ;
#62 = CALENDAR_DATE ( 2021, 8, 10 ) ;
#63 = CLOSED_SHELL ( 'NONE', ( #136, #167, #28 ) ) ;
#64 = LOCAL_TIME ( 7, 16, 21.00000000000000000, #165 ) ;
#65 = PERSON_AND_ORGANIZATION ( #183, #137 ) ;
#66 = ORIENTED_EDGE ( 'NONE', *, *, #74, .F. ) ;
#67 = DESIGN_CONTEXT ( 'detailed design', #54, 'design' ) ;
#68 = ORIENTED_EDGE ( 'NONE', *, *, #149, .F. ) ;
#69 = CC_DESIGN_PERSON_AND_ORGANIZATION_ASSIGNMENT ( #65, #176, ( #110 ) ) ;
#70 = ORIENTED_EDGE ( 'NONE', *, *, #118, .T. ) ;
#71 = DIRECTION ( 'NONE',  ( 0.0000000000000000000, 1.000000000000000000, 0.0000000000000000000 ) ) ;
#72 = CARTESIAN_POINT ( 'NONE',  ( 3.461524503657794355E-16, -1.214139355812580608E-17, 0.09914200213954846297 ) ) ;
#73 = DIRECTION ( 'NONE',  ( 3.491481338843133355E-15, -1.224646799147353207E-16, 1.000000000000000000 ) ) ;
#74 = EDGE_CURVE ( 'NONE', #141, #141, #78, .T. ) ;
#75 = DIRECTION ( 'NONE',  ( -3.491481338843133355E-15, 1.224646799147353207E-16, -1.000000000000000000 ) ) ;
#76 = PLANE ( 'NONE',  #87 ) ;
#77 = ADVANCED_FACE ( 'NONE', ( #203, #108 ), #120, .T. ) ;
#78 = CIRCLE ( 'NONE', #94, 0.4999999999999991673 ) ;
#79 = VERTEX_POINT ( 'NONE', #130 ) ;
#80 = EDGE_LOOP ( 'NONE', ( #68 ) ) ;
#81 = CARTESIAN_POINT ( 'NONE',  ( 9.602401234595568931E-15, 0.4999999999999963363, 2.750237020535594823 ) ) ;
#82 = AXIS2_PLACEMENT_3D ( 'NONE', #208, #191, #206 ) ;
#83 = APPROVAL_STATUS ( 'not_yet_approved' ) ;
#84 = APPROVAL_ROLE ( '' ) ;
#85 = MANIFOLD_SOLID_BREP ( 'Corps-Déplacer/Copier1[2]', #63 ) ;
#86 = VERTEX_POINT ( 'NONE', #2 ) ;
#87 = AXIS2_PLACEMENT_3D ( 'NONE', #90, #73, #223 ) ;
#88 = DIRECTION ( 'NONE',  ( 2.918075673313996955E-31, 1.000000000000000000, 8.213652821859891190E-17 ) ) ;
#89 = DIRECTION ( 'NONE',  ( -3.491481338843133355E-15, 1.224646799147353207E-16, -1.000000000000000000 ) ) ;
#90 = CARTESIAN_POINT ( 'NONE',  ( 5.237222008264700033E-15, 1.237301820696030097E-33, 1.500000000000000000 ) ) ;
#91 = FACE_BOUND ( 'NONE', #26, .T. ) ;
#92 = APPROVAL ( #83, 'UNSPECIFIED' ) ;
#93 = PERSON_AND_ORGANIZATION ( #183, #137 ) ;
#94 = AXIS2_PLACEMENT_3D ( 'NONE', #16, #53, #217 ) ;
#95 = APPROVAL_ROLE ( '' ) ;
#96 = ORIENTED_EDGE ( 'NONE', *, *, #186, .F. ) ;
#97 = DATE_AND_TIME ( #177, #134 ) ;
#98 = ORIENTED_EDGE ( 'NONE', *, *, #222, .T. ) ;
#99 = PERSON_AND_ORGANIZATION_ROLE ( 'creator' ) ;
#100 = ORIENTED_EDGE ( 'NONE', *, *, #21, .F. ) ;
#101 = ADVANCED_FACE ( 'NONE', ( #172, #104 ), #153, .T. ) ;
#102 = DATE_AND_TIME ( #138, #64 ) ;
#103 = DIRECTION ( 'NONE',  ( -3.491481338843133355E-15, 1.224646799147353207E-16, -1.000000000000000000 ) ) ;
#104 = FACE_OUTER_BOUND ( 'NONE', #148, .T. ) ;
#105 = CC_DESIGN_DATE_AND_TIME_ASSIGNMENT ( #1, #9, ( #30 ) ) ;
#106 = CARTESIAN_POINT ( 'NONE',  ( 9.602401234595568931E-15, -3.368068964095469809E-16, 2.750237020535594823 ) ) ;
#107 = CARTESIAN_POINT ( 'NONE',  ( 3.461524503657794355E-16, -1.214139355812580608E-17, 0.09914200213954846297 ) ) ;
#108 = FACE_OUTER_BOUND ( 'NONE', #4, .T. ) ;
#109 = ADVANCED_FACE ( 'NONE', ( #11 ), #76, .F. ) ;
#110 = PRODUCT_DEFINITION_FORMATION_WITH_SPECIFIED_SOURCE ( 'ANY', '', #17, .NOT_KNOWN. ) ;
#111 = CARTESIAN_POINT ( 'NONE',  ( 0.0000000000000000000, 0.0000000000000000000, 0.0000000000000000000 ) ) ;
#112 = MECHANICAL_CONTEXT ( 'NONE', #155, 'mechanical' ) ;
#113 = APPROVAL_STATUS ( 'not_yet_approved' ) ;
#114 = AXIS2_PLACEMENT_3D ( 'NONE', #72, #207, #13 ) ;
#115 = CC_DESIGN_PERSON_AND_ORGANIZATION_ASSIGNMENT ( #23, #99, ( #126 ) ) ;
#116 = DIRECTION ( 'NONE',  ( 0.0000000000000000000, 0.0000000000000000000, 1.000000000000000000 ) ) ;
#117 = FACE_OUTER_BOUND ( 'NONE', #202, .T. ) ;
#118 = EDGE_CURVE ( 'NONE', #86, #86, #215, .T. ) ;
#119 = APPROVAL_STATUS ( 'not_yet_approved' ) ;
#120 = CONICAL_SURFACE ( 'NONE', #220, 0.4999999999999966693, 0.2617993877991426910 ) ;
#121 = EDGE_LOOP ( 'NONE', ( #179 ) ) ;
#122 = DIRECTION ( 'NONE',  ( -3.491481338843133355E-15, 1.224646799147353207E-16, -1.000000000000000000 ) ) ;
#123 = DIRECTION ( 'NONE',  ( 0.0000000000000000000, 1.000000000000000000, 0.0000000000000000000 ) ) ;
#124 = AXIS2_PLACEMENT_3D ( 'NONE', #56, #221, #123 ) ;
#125 = DIRECTION ( 'NONE',  ( 0.0000000000000000000, 1.000000000000000000, 0.0000000000000000000 ) ) ;
#126 = PRODUCT_DEFINITION ( 'UNKNOWN', '', #110, #67 ) ;
#127 = CARTESIAN_POINT ( 'NONE',  ( 5.237222008264700033E-15, 1.237301820696030097E-33, 1.500000000000000000 ) ) ;
#128 = CIRCLE ( 'NONE', #39, 0.3999999999999989675 ) ;
#129 = PERSON_AND_ORGANIZATION ( #183, #137 ) ;
#130 = CARTESIAN_POINT ( 'NONE',  ( 1.047444401652940007E-13, 0.3999999999999953038, 30.00000000000000000 ) ) ;
#131 = PRODUCT_RELATED_PRODUCT_CATEGORY ( 'detail', '', ( #17 ) ) ;
#132 =( NAMED_UNIT ( * ) PLANE_ANGLE_UNIT ( ) SI_UNIT ( $, .RADIAN. ) );
#133 = CIRCLE ( 'NONE', #184, 0.1649999999999998135 ) ;
#134 = LOCAL_TIME ( 7, 16, 21.00000000000000000, #5 ) ;
#135 = SECURITY_CLASSIFICATION_LEVEL ( 'unclassified' ) ;
#136 = ADVANCED_FACE ( 'NONE', ( #152 ), #209, .T. ) ;
#137 = ORGANIZATION ( 'UNSPECIFIED', 'UNSPECIFIED', '' ) ;
#138 = CALENDAR_DATE ( 2021, 8, 10 ) ;
#139 = AXIS2_PLACEMENT_3D ( 'NONE', #36, #89, #218 ) ;
#140 = EDGE_LOOP ( 'NONE', ( #96 ) ) ;
#141 = VERTEX_POINT ( 'NONE', #188 ) ;
#142 = FACE_OUTER_BOUND ( 'NONE', #49, .T. ) ;
#143 = FACE_OUTER_BOUND ( 'NONE', #80, .T. ) ;
#144 = PLANE ( 'NONE',  #50 ) ;
#145 = PERSON_AND_ORGANIZATION_ROLE ( 'design_supplier' ) ;
#146 = DATE_AND_TIME ( #62, #169 ) ;
#147 =( LENGTH_UNIT ( ) NAMED_UNIT ( * ) SI_UNIT ( .MILLI., .METRE. ) );
#148 = EDGE_LOOP ( 'NONE', ( #45 ) ) ;
#149 = EDGE_CURVE ( 'NONE', #60, #60, #214, .T. ) ;
#150 = LOCAL_TIME ( 7, 16, 21.00000000000000000, #18 ) ;
#151 = CARTESIAN_POINT ( 'NONE',  ( 1.047444401652940007E-13, 2.999519565323652267E-33, 30.00000000000000000 ) ) ;
#152 = FACE_OUTER_BOUND ( 'NONE', #24, .T. ) ;
#153 = CYLINDRICAL_SURFACE ( 'NONE', #173, 0.4999999999999978351 ) ;
#154 = MANIFOLD_SOLID_BREP ( 'Corps-Déplacer/Copier1[1]', #219 ) ;
#155 = APPLICATION_CONTEXT ( 'configuration controlled 3d designs of mechanical parts and assemblies' ) ;
#156 =( GEOMETRIC_REPRESENTATION_CONTEXT ( 3 ) GLOBAL_UNCERTAINTY_ASSIGNED_CONTEXT ( ( #59 ) ) GLOBAL_UNIT_ASSIGNED_CONTEXT ( ( #147, #132, #194 ) ) REPRESENTATION_CONTEXT ( 'NONE', 'WORKASPACE' ) );
#157 = FACE_OUTER_BOUND ( 'NONE', #121, .T. ) ;
#158 = CC_DESIGN_PERSON_AND_ORGANIZATION_ASSIGNMENT ( #3, #145, ( #110 ) ) ;
#159 = CARTESIAN_POINT ( 'NONE',  ( 0.0000000000000000000, 0.0000000000000000000, 0.0000000000000000000 ) ) ;
#160 = CALENDAR_DATE ( 2021, 8, 10 ) ;
#161 = AXIS2_PLACEMENT_3D ( 'NONE', #170, #122, #71 ) ;
#162 = APPLICATION_PROTOCOL_DEFINITION ( 'international standard', 'config_control_design', 1994, #155 ) ;
#163 = COORDINATED_UNIVERSAL_TIME_OFFSET ( 1, 0, .AHEAD. ) ;
#164 = DATE_AND_TIME ( #211, #201 ) ;
#165 = COORDINATED_UNIVERSAL_TIME_OFFSET ( 1, 0, .AHEAD. ) ;
#166 = CC_DESIGN_APPROVAL ( #8, ( #126 ) ) ;
#167 = ADVANCED_FACE ( 'NONE', ( #142, #157 ), #32, .T. ) ;
#168 = VERTEX_POINT ( 'NONE', #37 ) ;
#169 = LOCAL_TIME ( 7, 16, 21.00000000000000000, #163 ) ;
#170 = CARTESIAN_POINT ( 'NONE',  ( 5.237222008264700033E-15, -1.836970198721029934E-16, 1.500000000000000000 ) ) ;
#171 = DIRECTION ( 'NONE',  ( 0.0000000000000000000, -1.000000000000000000, 0.0000000000000000000 ) ) ;
#172 = FACE_OUTER_BOUND ( 'NONE', #140, .T. ) ;
#173 = AXIS2_PLACEMENT_3D ( 'NONE', #159, #12, #204 ) ;
#174 = DIRECTION ( 'NONE',  ( 3.491481338843133355E-15, -1.224646799147353207E-16, 1.000000000000000000 ) ) ;
#175 = PERSON_AND_ORGANIZATION ( #183, #137 ) ;
#176 = PERSON_AND_ORGANIZATION_ROLE ( 'creator' ) ;
#177 = CALENDAR_DATE ( 2021, 8, 10 ) ;
#178 = CONICAL_SURFACE ( 'NONE', #139, 0.3999999999999989675, 0.7853981633974694843 ) ;
#179 = ORIENTED_EDGE ( 'NONE', *, *, #149, .T. ) ;
#180 = DATE_TIME_ROLE ( 'creation_date' ) ;
#181 = PLANE ( 'NONE',  #20 ) ;
#182 = PERSON_AND_ORGANIZATION ( #183, #137 ) ;
#183 = PERSON ( 'UNSPECIFIED', 'UNSPECIFIED', 'UNSPECIFIED', ('UNSPECIFIED'), ('UNSPECIFIED'), ('UNSPECIFIED') ) ;
#184 = AXIS2_PLACEMENT_3D ( 'NONE', #107, #216, #88 ) ;
#185 = CC_DESIGN_APPROVAL ( #42, ( #30 ) ) ;
#186 = EDGE_CURVE ( 'NONE', #195, #195, #31, .T. ) ;
#187 = EDGE_LOOP ( 'NONE', ( #70 ) ) ;
#188 = CARTESIAN_POINT ( 'NONE',  ( 1.043952920314096936E-13, 0.4999999999999954481, 29.90000000000000213 ) ) ;
#189 = DIRECTION ( 'NONE',  ( 4.275831445896958607E-31, 1.000000000000000000, 1.224646799147353207E-16 ) ) ;
#190 = ADVANCED_BREP_SHAPE_REPRESENTATION ( '952665', ( #154, #85, #196 ), #156 ) ;
#191 = DIRECTION ( 'NONE',  ( -3.491481338843133355E-15, 1.224646799147353207E-16, -1.000000000000000000 ) ) ;
#192 = FACE_OUTER_BOUND ( 'NONE', #52, .T. ) ;
#193 = APPROVAL_PERSON_ORGANIZATION ( #182, #42, #84 ) ;
#194 =( NAMED_UNIT ( * ) SI_UNIT ( $, .STERADIAN. ) SOLID_ANGLE_UNIT ( ) );
#195 = VERTEX_POINT ( 'NONE', #81 ) ;
#196 = AXIS2_PLACEMENT_3D ( 'NONE', #111, #116, #19 ) ;
#197 = ORIENTED_EDGE ( 'NONE', *, *, #21, .T. ) ;
#198 = CARTESIAN_POINT ( 'NONE',  ( 5.237222008264700033E-15, 0.1649999999999998690, 1.500000000000000000 ) ) ;
#199 = SHAPE_DEFINITION_REPRESENTATION ( #46, #190 ) ;
#200 = EDGE_LOOP ( 'NONE', ( #29 ) ) ;
#201 = LOCAL_TIME ( 7, 16, 21.00000000000000000, #41 ) ;
#202 = EDGE_LOOP ( 'NONE', ( #213 ) ) ;
#203 = FACE_BOUND ( 'NONE', #200, .T. ) ;
#204 = DIRECTION ( 'NONE',  ( 4.275831445896958607E-31, 1.000000000000000000, 1.224646799147353207E-16 ) ) ;
#205 = CC_DESIGN_DATE_AND_TIME_ASSIGNMENT ( #146, #180, ( #126 ) ) ;
#206 = DIRECTION ( 'NONE',  ( 0.0000000000000000000, 1.000000000000000000, 0.0000000000000000000 ) ) ;
#207 = DIRECTION ( 'NONE',  ( 3.491481338843133355E-15, -1.224646799147353207E-16, 1.000000000000000000 ) ) ;
#208 = CARTESIAN_POINT ( 'NONE',  ( 5.237222008264700033E-15, -1.836970198721029934E-16, 1.500000000000000000 ) ) ;
#209 = CONICAL_SURFACE ( 'NONE', #114, 0.1649999999999998135, 1.029744258676649427 ) ;
#210 = PERSON_AND_ORGANIZATION ( #183, #137 ) ;
#211 = CALENDAR_DATE ( 2021, 8, 10 ) ;
#212 = APPROVAL_DATE_TIME ( #164, #92 ) ;
#213 = ORIENTED_EDGE ( 'NONE', *, *, #222, .F. ) ;
#214 = CIRCLE ( 'NONE', #82, 0.1650000000000000633 ) ;
#215 = CIRCLE ( 'NONE', #161, 0.1650000000000000633 ) ;
#216 = DIRECTION ( 'NONE',  ( -3.491481338843133355E-15, 1.224646799147353207E-16, -1.000000000000000000 ) ) ;
#217 = DIRECTION ( 'NONE',  ( 0.0000000000000000000, 1.000000000000000000, 0.0000000000000000000 ) ) ;
#218 = DIRECTION ( 'NONE',  ( 0.0000000000000000000, 1.000000000000000000, 0.0000000000000000000 ) ) ;
#219 = CLOSED_SHELL ( 'NONE', ( #109, #77, #101, #51, #14 ) ) ;
#220 = AXIS2_PLACEMENT_3D ( 'NONE', #106, #174, #171 ) ;
#221 = DIRECTION ( 'NONE',  ( -3.491481338843133355E-15, 1.224646799147353207E-16, -1.000000000000000000 ) ) ;
#222 = EDGE_CURVE ( 'NONE', #79, #79, #128, .T. ) ;
#223 = DIRECTION ( 'NONE',  ( -4.275831445896958607E-31, -1.000000000000000000, -1.224646799147353207E-16 ) ) ;
ENDSEC;
END-ISO-10303-21;
