ISO-10303-21;
HEADER;
FILE_DESCRIPTION (( 'STEP AP203' ),
    '1' );
FILE_NAME ('952664.step',
    '2021-10-08T05:16:20',
    ( '' ),
    ( '' ),
    'SwSTEP 2.0',
    'SolidWorks 2019',
    '' );
FILE_SCHEMA (( 'CONFIG_CONTROL_DESIGN' ));
ENDSEC;

DATA;
#1 = FACE_OUTER_BOUND ( 'NONE', #129, .T. ) ;
#2 = CARTESIAN_POINT ( 'NONE',  ( 1.043952920314096936E-13, -3.661693929450586610E-15, 29.90000000000000213 ) ) ;
#3 = APPLICATION_CONTEXT ( 'configuration controlled 3d designs of mechanical parts and assemblies' ) ;
#4 = APPROVAL_DATE_TIME ( #154, #158 ) ;
#5 = ADVANCED_FACE ( 'NONE', ( #134, #69 ), #84, .T. ) ;
#6 =( GEOMETRIC_REPRESENTATION_CONTEXT ( 3 ) GLOBAL_UNCERTAINTY_ASSIGNED_CONTEXT ( ( #74 ) ) GLOBAL_UNIT_ASSIGNED_CONTEXT ( ( #170, #210, #157 ) ) REPRESENTATION_CONTEXT ( 'NONE', 'WORKASPACE' ) );
#7 = DIRECTION ( 'NONE',  ( 3.491481338843133355E-15, -1.224646799147353207E-16, 1.000000000000000000 ) ) ;
#8 = PERSON_AND_ORGANIZATION ( #63, #34 ) ;
#9 = CC_DESIGN_PERSON_AND_ORGANIZATION_ASSIGNMENT ( #65, #11, ( #212 ) ) ;
#10 = CONICAL_SURFACE ( 'NONE', #211, 0.4999999999999966693, 0.2617993877991427465 ) ;
#11 = PERSON_AND_ORGANIZATION_ROLE ( 'creator' ) ;
#12 = ADVANCED_FACE ( 'NONE', ( #151, #1 ), #82, .T. ) ;
#13 = CARTESIAN_POINT ( 'NONE',  ( 5.237222008264700033E-15, -1.836970198721029934E-16, 1.500000000000000000 ) ) ;
#14 = CIRCLE ( 'NONE', #54, 0.3999999999999989675 ) ;
#15 = PERSON_AND_ORGANIZATION_ROLE ( 'creator' ) ;
#16 = ORIENTED_EDGE ( 'NONE', *, *, #111, .T. ) ;
#17 = EDGE_LOOP ( 'NONE', ( #164 ) ) ;
#18 = ADVANCED_FACE ( 'NONE', ( #202 ), #146, .T. ) ;
#19 = DIRECTION ( 'NONE',  ( 4.275831445896958607E-31, 1.000000000000000000, 1.224646799147353207E-16 ) ) ;
#20 = FACE_OUTER_BOUND ( 'NONE', #87, .T. ) ;
#21 = CARTESIAN_POINT ( 'NONE',  ( 9.667553163346777202E-15, -3.390921184474192524E-16, 2.768897274573439482 ) ) ;
#22 = CARTESIAN_POINT ( 'NONE',  ( 1.043952920314096936E-13, 0.4999999999999954481, 29.90000000000000213 ) ) ;
#23 = LOCAL_TIME ( 7, 16, 20.00000000000000000, #200 ) ;
#24 = APPLICATION_PROTOCOL_DEFINITION ( 'international standard', 'config_control_design', 1994, #197 ) ;
#25 = DIRECTION ( 'NONE',  ( 0.0000000000000000000, 1.000000000000000000, 0.0000000000000000000 ) ) ;
#26 = EDGE_CURVE ( 'NONE', #91, #91, #216, .T. ) ;
#27 = APPROVAL_ROLE ( '' ) ;
#28 = SHAPE_DEFINITION_REPRESENTATION ( #148, #35 ) ;
#29 = CC_DESIGN_APPROVAL ( #158, ( #209 ) ) ;
#30 = PERSON_AND_ORGANIZATION_ROLE ( 'design_supplier' ) ;
#31 = PERSON_AND_ORGANIZATION ( #63, #34 ) ;
#32 = EDGE_LOOP ( 'NONE', ( #123 ) ) ;
#33 = FACE_OUTER_BOUND ( 'NONE', #56, .T. ) ;
#34 = ORGANIZATION ( 'UNSPECIFIED', 'UNSPECIFIED', '' ) ;
#35 = ADVANCED_BREP_SHAPE_REPRESENTATION ( '952664', ( #141, #143, #132 ), #6 ) ;
#36 = DIRECTION ( 'NONE',  ( -3.491481338843133355E-15, 1.224646799147353207E-16, -1.000000000000000000 ) ) ;
#37 = DIRECTION ( 'NONE',  ( -3.491481338843133355E-15, 1.224646799147353207E-16, -1.000000000000000000 ) ) ;
#38 = CARTESIAN_POINT ( 'NONE',  ( 3.356629821728770045E-16, -1.177347254121290104E-17, 0.09613769904441060721 ) ) ;
#39 = CARTESIAN_POINT ( 'NONE',  ( 9.667553163346777202E-15, 0.4999999999999963363, 2.768897274573439482 ) ) ;
#40 = CARTESIAN_POINT ( 'NONE',  ( 5.237222008264700033E-15, 1.199807826129483726E-33, 1.500000000000000000 ) ) ;
#41 = APPROVAL_PERSON_ORGANIZATION ( #179, #121, #103 ) ;
#42 = CC_DESIGN_DATE_AND_TIME_ASSIGNMENT ( #98, #142, ( #140 ) ) ;
#43 = ADVANCED_FACE ( 'NONE', ( #53 ), #180, .F. ) ;
#44 = AXIS2_PLACEMENT_3D ( 'NONE', #118, #120, #182 ) ;
#45 = MECHANICAL_CONTEXT ( 'NONE', #197, 'mechanical' ) ;
#46 = CALENDAR_DATE ( 2021, 8, 10 ) ;
#47 = CLOSED_SHELL ( 'NONE', ( #18, #12, #213 ) ) ;
#48 = APPROVAL_DATE_TIME ( #114, #80 ) ;
#49 = DIRECTION ( 'NONE',  ( 4.275831445896958607E-31, 1.000000000000000000, 1.224646799147353207E-16 ) ) ;
#50 = DATE_AND_TIME ( #196, #71 ) ;
#51 = CALENDAR_DATE ( 2021, 8, 10 ) ;
#52 = EDGE_CURVE ( 'NONE', #160, #160, #59, .T. ) ;
#53 = FACE_OUTER_BOUND ( 'NONE', #68, .T. ) ;
#54 = AXIS2_PLACEMENT_3D ( 'NONE', #135, #76, #25 ) ;
#55 = DESIGN_CONTEXT ( 'detailed design', #3, 'design' ) ;
#56 = EDGE_LOOP ( 'NONE', ( #70 ) ) ;
#57 = EDGE_LOOP ( 'NONE', ( #166 ) ) ;
#58 = VERTEX_POINT ( 'NONE', #137 ) ;
#59 = CIRCLE ( 'NONE', #203, 0.1600000000000000311 ) ;
#60 = APPROVAL_STATUS ( 'not_yet_approved' ) ;
#61 = CC_DESIGN_APPROVAL ( #80, ( #212 ) ) ;
#62 = FACE_BOUND ( 'NONE', #32, .T. ) ;
#63 = PERSON ( 'UNSPECIFIED', 'UNSPECIFIED', 'UNSPECIFIED', ('UNSPECIFIED'), ('UNSPECIFIED'), ('UNSPECIFIED') ) ;
#64 = APPROVAL_DATE_TIME ( #50, #121 ) ;
#65 = PERSON_AND_ORGANIZATION ( #63, #34 ) ;
#66 = LOCAL_TIME ( 7, 16, 20.00000000000000000, #162 ) ;
#67 = CYLINDRICAL_SURFACE ( 'NONE', #113, 0.4999999999999978351 ) ;
#68 = EDGE_LOOP ( 'NONE', ( #149 ) ) ;
#69 = FACE_BOUND ( 'NONE', #17, .T. ) ;
#70 = ORIENTED_EDGE ( 'NONE', *, *, #125, .T. ) ;
#71 = LOCAL_TIME ( 7, 16, 20.00000000000000000, #219 ) ;
#72 = DIRECTION ( 'NONE',  ( 0.0000000000000000000, 1.000000000000000000, 0.0000000000000000000 ) ) ;
#73 = VERTEX_POINT ( 'NONE', #22 ) ;
#74 = UNCERTAINTY_MEASURE_WITH_UNIT (LENGTH_MEASURE( 1.000000000000000082E-05 ), #170, 'distance_accuracy_value', 'NONE');
#75 = AXIS2_PLACEMENT_3D ( 'NONE', #2, #108, #72 ) ;
#76 = DIRECTION ( 'NONE',  ( -3.491481338843133355E-15, 1.224646799147353207E-16, -1.000000000000000000 ) ) ;
#77 = DIRECTION ( 'NONE',  ( 0.0000000000000000000, 0.0000000000000000000, 1.000000000000000000 ) ) ;
#78 = CALENDAR_DATE ( 2021, 8, 10 ) ;
#79 = AXIS2_PLACEMENT_3D ( 'NONE', #38, #109, #169 ) ;
#80 = APPROVAL ( #218, 'UNSPECIFIED' ) ;
#81 = PERSON_AND_ORGANIZATION ( #63, #34 ) ;
#82 = CYLINDRICAL_SURFACE ( 'NONE', #165, 0.1599999999999999201 ) ;
#83 = COORDINATED_UNIVERSAL_TIME_OFFSET ( 1, 0, .AHEAD. ) ;
#84 = CONICAL_SURFACE ( 'NONE', #93, 0.3999999999999989675, 0.7853981633974694843 ) ;
#85 = EDGE_LOOP ( 'NONE', ( #107 ) ) ;
#86 = ORIENTED_EDGE ( 'NONE', *, *, #125, .F. ) ;
#87 = EDGE_LOOP ( 'NONE', ( #167 ) ) ;
#88 = AXIS2_PLACEMENT_3D ( 'NONE', #13, #36, #147 ) ;
#89 = CARTESIAN_POINT ( 'NONE',  ( 3.356629821728770045E-16, -1.177347254121290104E-17, 0.09613769904441060721 ) ) ;
#90 = APPLICATION_PROTOCOL_DEFINITION ( 'international standard', 'config_control_design', 1994, #3 ) ;
#91 = VERTEX_POINT ( 'NONE', #207 ) ;
#92 = EDGE_CURVE ( 'NONE', #159, #159, #161, .T. ) ;
#93 = AXIS2_PLACEMENT_3D ( 'NONE', #104, #223, #201 ) ;
#94 = AXIS2_PLACEMENT_3D ( 'NONE', #145, #204, #19 ) ;
#95 = PERSON_AND_ORGANIZATION ( #63, #34 ) ;
#96 = DIRECTION ( 'NONE',  ( 3.491481338843133355E-15, -1.224646799147353207E-16, 1.000000000000000000 ) ) ;
#97 = EDGE_LOOP ( 'NONE', ( #16 ) ) ;
#98 = DATE_AND_TIME ( #51, #171 ) ;
#99 = CC_DESIGN_DATE_AND_TIME_ASSIGNMENT ( #101, #102, ( #209 ) ) ;
#100 = CC_DESIGN_SECURITY_CLASSIFICATION ( #140, ( #212 ) ) ;
#101 = DATE_AND_TIME ( #177, #23 ) ;
#102 = DATE_TIME_ROLE ( 'creation_date' ) ;
#103 = APPROVAL_ROLE ( '' ) ;
#104 = CARTESIAN_POINT ( 'NONE',  ( 1.047444401652940007E-13, -3.673940397442059178E-15, 30.00000000000000000 ) ) ;
#105 = AXIS2_PLACEMENT_3D ( 'NONE', #174, #96, #136 ) ;
#106 = EDGE_LOOP ( 'NONE', ( #117 ) ) ;
#107 = ORIENTED_EDGE ( 'NONE', *, *, #92, .F. ) ;
#108 = DIRECTION ( 'NONE',  ( -3.491481338843133355E-15, 1.224646799147353207E-16, -1.000000000000000000 ) ) ;
#109 = DIRECTION ( 'NONE',  ( 3.491481338843133355E-15, -1.224646799147353207E-16, 1.000000000000000000 ) ) ;
#110 = PLANE ( 'NONE',  #105 ) ;
#111 = EDGE_CURVE ( 'NONE', #128, #128, #119, .T. ) ;
#112 = PLANE ( 'NONE',  #152 ) ;
#113 = AXIS2_PLACEMENT_3D ( 'NONE', #130, #199, #49 ) ;
#114 = DATE_AND_TIME ( #46, #66 ) ;
#115 = CC_DESIGN_PERSON_AND_ORGANIZATION_ASSIGNMENT ( #8, #138, ( #181 ) ) ;
#116 = PERSON_AND_ORGANIZATION_ROLE ( 'classification_officer' ) ;
#117 = ORIENTED_EDGE ( 'NONE', *, *, #92, .T. ) ;
#118 = CARTESIAN_POINT ( 'NONE',  ( 9.667553163346777202E-15, -3.390921184474192524E-16, 2.768897274573439482 ) ) ;
#119 = CIRCLE ( 'NONE', #44, 0.4999999999999966693 ) ;
#120 = DIRECTION ( 'NONE',  ( -3.491481338843133355E-15, 1.224646799147353207E-16, -1.000000000000000000 ) ) ;
#121 = APPROVAL ( #220, 'UNSPECIFIED' ) ;
#122 = DIRECTION ( 'NONE',  ( 0.0000000000000000000, 1.000000000000000000, 0.0000000000000000000 ) ) ;
#123 = ORIENTED_EDGE ( 'NONE', *, *, #26, .F. ) ;
#124 = DIRECTION ( 'NONE',  ( 1.000000000000000000, 0.0000000000000000000, 0.0000000000000000000 ) ) ;
#125 = EDGE_CURVE ( 'NONE', #73, #73, #208, .T. ) ;
#126 = DIRECTION ( 'NONE',  ( 0.0000000000000000000, -1.000000000000000000, 0.0000000000000000000 ) ) ;
#127 = CLOSED_SHELL ( 'NONE', ( #217, #189, #172, #5, #43 ) ) ;
#128 = VERTEX_POINT ( 'NONE', #39 ) ;
#129 = EDGE_LOOP ( 'NONE', ( #184 ) ) ;
#130 = CARTESIAN_POINT ( 'NONE',  ( 0.0000000000000000000, 0.0000000000000000000, 0.0000000000000000000 ) ) ;
#131 = DIRECTION ( 'NONE',  ( -3.491481338843133355E-15, 1.224646799147353207E-16, -1.000000000000000000 ) ) ;
#132 = AXIS2_PLACEMENT_3D ( 'NONE', #194, #77, #124 ) ;
#133 = CARTESIAN_POINT ( 'NONE',  ( 0.0000000000000000000, 0.0000000000000000000, 0.0000000000000000000 ) ) ;
#134 = FACE_OUTER_BOUND ( 'NONE', #193, .T. ) ;
#135 = CARTESIAN_POINT ( 'NONE',  ( 1.047444401652940007E-13, -3.673940397442059178E-15, 30.00000000000000000 ) ) ;
#136 = DIRECTION ( 'NONE',  ( -4.275831445896958607E-31, -1.000000000000000000, -1.224646799147353207E-16 ) ) ;
#137 = CARTESIAN_POINT ( 'NONE',  ( 1.047444401652940007E-13, 0.3999999999999953038, 30.00000000000000000 ) ) ;
#138 = PERSON_AND_ORGANIZATION_ROLE ( 'design_owner' ) ;
#139 = FACE_OUTER_BOUND ( 'NONE', #57, .T. ) ;
#140 = SECURITY_CLASSIFICATION ( '', '', #163 ) ;
#141 = MANIFOLD_SOLID_BREP ( 'Corps-Déplacer/Copier1[1]', #127 ) ;
#142 = DATE_TIME_ROLE ( 'classification_date' ) ;
#143 = MANIFOLD_SOLID_BREP ( 'Corps-Déplacer/Copier1[2]', #47 ) ;
#144 = PERSON_AND_ORGANIZATION ( #63, #34 ) ;
#145 = CARTESIAN_POINT ( 'NONE',  ( 1.047444401652940007E-13, 2.999519565323652267E-33, 30.00000000000000000 ) ) ;
#146 = CONICAL_SURFACE ( 'NONE', #79, 0.1599999999999998368, 1.029744258676649649 ) ;
#147 = DIRECTION ( 'NONE',  ( 0.0000000000000000000, 1.000000000000000000, 0.0000000000000000000 ) ) ;
#148 = PRODUCT_DEFINITION_SHAPE ( 'NONE', 'NONE',  #209 ) ;
#149 = ORIENTED_EDGE ( 'NONE', *, *, #191, .F. ) ;
#150 = CC_DESIGN_PERSON_AND_ORGANIZATION_ASSIGNMENT ( #31, #116, ( #140 ) ) ;
#151 = FACE_OUTER_BOUND ( 'NONE', #85, .T. ) ;
#152 = AXIS2_PLACEMENT_3D ( 'NONE', #40, #187, #155 ) ;
#153 = DIRECTION ( 'NONE',  ( 3.009265538105059086E-31, 1.000000000000000000, 8.470329472543012019E-17 ) ) ;
#154 = DATE_AND_TIME ( #78, #175 ) ;
#155 = DIRECTION ( 'NONE',  ( -4.275831445896958607E-31, -1.000000000000000000, -1.224646799147353207E-16 ) ) ;
#156 = APPROVAL_PERSON_ORGANIZATION ( #95, #158, #214 ) ;
#157 =( NAMED_UNIT ( * ) SI_UNIT ( $, .STERADIAN. ) SOLID_ANGLE_UNIT ( ) );
#158 = APPROVAL ( #60, 'UNSPECIFIED' ) ;
#159 = VERTEX_POINT ( 'NONE', #188 ) ;
#160 = VERTEX_POINT ( 'NONE', #192 ) ;
#161 = CIRCLE ( 'NONE', #222, 0.1599999999999998368 ) ;
#162 = COORDINATED_UNIVERSAL_TIME_OFFSET ( 1, 0, .AHEAD. ) ;
#163 = SECURITY_CLASSIFICATION_LEVEL ( 'unclassified' ) ;
#164 = ORIENTED_EDGE ( 'NONE', *, *, #191, .T. ) ;
#165 = AXIS2_PLACEMENT_3D ( 'NONE', #133, #186, #185 ) ;
#166 = ORIENTED_EDGE ( 'NONE', *, *, #52, .F. ) ;
#167 = ORIENTED_EDGE ( 'NONE', *, *, #26, .T. ) ;
#168 = ORIENTED_EDGE ( 'NONE', *, *, #111, .F. ) ;
#169 = DIRECTION ( 'NONE',  ( -3.009265538105059086E-31, -1.000000000000000000, -8.470329472543012019E-17 ) ) ;
#170 =( LENGTH_UNIT ( ) NAMED_UNIT ( * ) SI_UNIT ( .MILLI., .METRE. ) );
#171 = LOCAL_TIME ( 7, 16, 20.00000000000000000, #83 ) ;
#172 = ADVANCED_FACE ( 'NONE', ( #206, #33 ), #67, .T. ) ;
#173 = CC_DESIGN_PERSON_AND_ORGANIZATION_ASSIGNMENT ( #198, #15, ( #209 ) ) ;
#174 = CARTESIAN_POINT ( 'NONE',  ( 5.237222008264700033E-15, 1.199807826129483726E-33, 1.500000000000000000 ) ) ;
#175 = LOCAL_TIME ( 7, 16, 20.00000000000000000, #176 ) ;
#176 = COORDINATED_UNIVERSAL_TIME_OFFSET ( 1, 0, .AHEAD. ) ;
#177 = CALENDAR_DATE ( 2021, 8, 10 ) ;
#178 = PRODUCT_RELATED_PRODUCT_CATEGORY ( 'detail', '', ( #181 ) ) ;
#179 = PERSON_AND_ORGANIZATION ( #63, #34 ) ;
#180 = PLANE ( 'NONE',  #94 ) ;
#181 = PRODUCT ( '952664', '952664', '', ( #45 ) ) ;
#182 = DIRECTION ( 'NONE',  ( 0.0000000000000000000, 1.000000000000000000, 0.0000000000000000000 ) ) ;
#183 = APPROVAL_PERSON_ORGANIZATION ( #144, #80, #27 ) ;
#184 = ORIENTED_EDGE ( 'NONE', *, *, #52, .T. ) ;
#185 = DIRECTION ( 'NONE',  ( 4.275831445896958607E-31, 1.000000000000000000, 1.224646799147353207E-16 ) ) ;
#186 = DIRECTION ( 'NONE',  ( -3.491481338843133355E-15, 1.224646799147353207E-16, -1.000000000000000000 ) ) ;
#187 = DIRECTION ( 'NONE',  ( 3.491481338843133355E-15, -1.224646799147353207E-16, 1.000000000000000000 ) ) ;
#188 = CARTESIAN_POINT ( 'NONE',  ( 3.356629821728770538E-16, 0.1599999999999998368, 0.09613769904441062109 ) ) ;
#189 = ADVANCED_FACE ( 'NONE', ( #62, #215 ), #10, .T. ) ;
#190 = CC_DESIGN_APPROVAL ( #121, ( #140 ) ) ;
#191 = EDGE_CURVE ( 'NONE', #58, #58, #14, .T. ) ;
#192 = CARTESIAN_POINT ( 'NONE',  ( 5.237222008264700033E-15, 0.1599999999999998368, 1.500000000000000000 ) ) ;
#193 = EDGE_LOOP ( 'NONE', ( #86 ) ) ;
#194 = CARTESIAN_POINT ( 'NONE',  ( 0.0000000000000000000, 0.0000000000000000000, 0.0000000000000000000 ) ) ;
#195 = EDGE_LOOP ( 'NONE', ( #168 ) ) ;
#196 = CALENDAR_DATE ( 2021, 8, 10 ) ;
#197 = APPLICATION_CONTEXT ( 'configuration controlled 3d designs of mechanical parts and assemblies' ) ;
#198 = PERSON_AND_ORGANIZATION ( #63, #34 ) ;
#199 = DIRECTION ( 'NONE',  ( -3.491481338843133355E-15, 1.224646799147353207E-16, -1.000000000000000000 ) ) ;
#200 = COORDINATED_UNIVERSAL_TIME_OFFSET ( 1, 0, .AHEAD. ) ;
#201 = DIRECTION ( 'NONE',  ( 0.0000000000000000000, 1.000000000000000000, 0.0000000000000000000 ) ) ;
#202 = FACE_OUTER_BOUND ( 'NONE', #106, .T. ) ;
#203 = AXIS2_PLACEMENT_3D ( 'NONE', #221, #37, #122 ) ;
#204 = DIRECTION ( 'NONE',  ( -3.491481338843133355E-15, 1.224646799147353207E-16, -1.000000000000000000 ) ) ;
#205 = CC_DESIGN_PERSON_AND_ORGANIZATION_ASSIGNMENT ( #81, #30, ( #212 ) ) ;
#206 = FACE_OUTER_BOUND ( 'NONE', #195, .T. ) ;
#207 = CARTESIAN_POINT ( 'NONE',  ( 5.237222008264700033E-15, 0.1599999999999998368, 1.500000000000000000 ) ) ;
#208 = CIRCLE ( 'NONE', #75, 0.4999999999999991673 ) ;
#209 = PRODUCT_DEFINITION ( 'UNKNOWN', '', #212, #55 ) ;
#210 =( NAMED_UNIT ( * ) PLANE_ANGLE_UNIT ( ) SI_UNIT ( $, .RADIAN. ) );
#211 = AXIS2_PLACEMENT_3D ( 'NONE', #21, #7, #126 ) ;
#212 = PRODUCT_DEFINITION_FORMATION_WITH_SPECIFIED_SOURCE ( 'ANY', '', #181, .NOT_KNOWN. ) ;
#213 = ADVANCED_FACE ( 'NONE', ( #139 ), #112, .T. ) ;
#214 = APPROVAL_ROLE ( '' ) ;
#215 = FACE_OUTER_BOUND ( 'NONE', #97, .T. ) ;
#216 = CIRCLE ( 'NONE', #88, 0.1600000000000000311 ) ;
#217 = ADVANCED_FACE ( 'NONE', ( #20 ), #110, .F. ) ;
#218 = APPROVAL_STATUS ( 'not_yet_approved' ) ;
#219 = COORDINATED_UNIVERSAL_TIME_OFFSET ( 1, 0, .AHEAD. ) ;
#220 = APPROVAL_STATUS ( 'not_yet_approved' ) ;
#221 = CARTESIAN_POINT ( 'NONE',  ( 5.237222008264700033E-15, -1.836970198721029934E-16, 1.500000000000000000 ) ) ;
#222 = AXIS2_PLACEMENT_3D ( 'NONE', #89, #131, #153 ) ;
#223 = DIRECTION ( 'NONE',  ( -3.491481338843133355E-15, 1.224646799147353207E-16, -1.000000000000000000 ) ) ;
ENDSEC;
END-ISO-10303-21;
