ISO-10303-21;
HEADER;
FILE_DESCRIPTION (( 'STEP AP203' ),
    '1' );
FILE_NAME ('952663.step',
    '2021-10-08T05:16:19',
    ( '' ),
    ( '' ),
    'SwSTEP 2.0',
    'SolidWorks 2019',
    '' );
FILE_SCHEMA (( 'CONFIG_CONTROL_DESIGN' ));
ENDSEC;

DATA;
#1 = DATE_AND_TIME ( #37, #196 ) ;
#2 = ORGANIZATION ( 'UNSPECIFIED', 'UNSPECIFIED', '' ) ;
#3 = PERSON_AND_ORGANIZATION ( #79, #2 ) ;
#4 = DIRECTION ( 'NONE',  ( 0.0000000000000000000, 1.000000000000000000, 0.0000000000000000000 ) ) ;
#5 = FACE_OUTER_BOUND ( 'NONE', #77, .T. ) ;
#6 = AXIS2_PLACEMENT_3D ( 'NONE', #110, #160, #171 ) ;
#7 = EDGE_CURVE ( 'NONE', #9, #9, #173, .T. ) ;
#8 = CARTESIAN_POINT ( 'NONE',  ( 5.237222008264700033E-15, -1.836970198721029934E-16, 1.500000000000000000 ) ) ;
#9 = VERTEX_POINT ( 'NONE', #66 ) ;
#10 = PLANE ( 'NONE',  #31 ) ;
#11 = ADVANCED_FACE ( 'NONE', ( #5, #43 ), #108, .T. ) ;
#12 = AXIS2_PLACEMENT_3D ( 'NONE', #8, #91, #188 ) ;
#13 = CARTESIAN_POINT ( 'NONE',  ( 1.047444401652940007E-13, 2.999519565323652267E-33, 30.00000000000000000 ) ) ;
#14 = FACE_OUTER_BOUND ( 'NONE', #211, .T. ) ;
#15 = FACE_OUTER_BOUND ( 'NONE', #111, .T. ) ;
#16 = PERSON_AND_ORGANIZATION ( #79, #2 ) ;
#17 = APPROVAL_STATUS ( 'not_yet_approved' ) ;
#18 = APPLICATION_CONTEXT ( 'configuration controlled 3d designs of mechanical parts and assemblies' ) ;
#19 = DESIGN_CONTEXT ( 'detailed design', #39, 'design' ) ;
#20 = SECURITY_CLASSIFICATION_LEVEL ( 'unclassified' ) ;
#21 = LOCAL_TIME ( 7, 16, 19.00000000000000000, #71 ) ;
#22 = ADVANCED_FACE ( 'NONE', ( #128, #25 ), #97, .T. ) ;
#23 = ORIENTED_EDGE ( 'NONE', *, *, #93, .F. ) ;
#24 = EDGE_LOOP ( 'NONE', ( #148 ) ) ;
#25 = FACE_OUTER_BOUND ( 'NONE', #172, .T. ) ;
#26 = APPROVAL ( #54, 'UNSPECIFIED' ) ;
#27 = ORIENTED_EDGE ( 'NONE', *, *, #7, .F. ) ;
#28 = CLOSED_SHELL ( 'NONE', ( #73, #22, #156, #11, #57 ) ) ;
#29 = DIRECTION ( 'NONE',  ( -3.491481338843133355E-15, 1.224646799147353207E-16, -1.000000000000000000 ) ) ;
#30 = VERTEX_POINT ( 'NONE', #81 ) ;
#31 = AXIS2_PLACEMENT_3D ( 'NONE', #13, #29, #100 ) ;
#32 = DIRECTION ( 'NONE',  ( -3.491481338843133355E-15, 1.224646799147353207E-16, -1.000000000000000000 ) ) ;
#33 = DIRECTION ( 'NONE',  ( 4.275831445896958607E-31, 1.000000000000000000, 1.224646799147353207E-16 ) ) ;
#34 = APPROVAL_DATE_TIME ( #140, #142 ) ;
#35 = LOCAL_TIME ( 7, 16, 19.00000000000000000, #167 ) ;
#36 = PRODUCT_DEFINITION ( 'UNKNOWN', '', #92, #19 ) ;
#37 = CALENDAR_DATE ( 2021, 8, 10 ) ;
#38 = CC_DESIGN_PERSON_AND_ORGANIZATION_ASSIGNMENT ( #136, #68, ( #42 ) ) ;
#39 = APPLICATION_CONTEXT ( 'configuration controlled 3d designs of mechanical parts and assemblies' ) ;
#40 = ORIENTED_EDGE ( 'NONE', *, *, #93, .T. ) ;
#41 = CLOSED_SHELL ( 'NONE', ( #191, #166, #107 ) ) ;
#42 = PRODUCT ( '952663', '952663', '', ( #141 ) ) ;
#43 = FACE_BOUND ( 'NONE', #58, .T. ) ;
#44 = CARTESIAN_POINT ( 'NONE',  ( 5.237222008264700033E-15, 1.162313831562937012E-33, 1.500000000000000000 ) ) ;
#45 = AXIS2_PLACEMENT_3D ( 'NONE', #192, #112, #194 ) ;
#46 = FACE_OUTER_BOUND ( 'NONE', #193, .T. ) ;
#47 = DIRECTION ( 'NONE',  ( -3.491481338843133355E-15, 1.224646799147353207E-16, -1.000000000000000000 ) ) ;
#48 = PLANE ( 'NONE',  #87 ) ;
#49 = LOCAL_TIME ( 7, 16, 19.00000000000000000, #55 ) ;
#50 = DIRECTION ( 'NONE',  ( 3.491481338843133355E-15, -1.224646799147353207E-16, 1.000000000000000000 ) ) ;
#51 = EDGE_CURVE ( 'NONE', #134, #134, #123, .T. ) ;
#52 = PERSON_AND_ORGANIZATION_ROLE ( 'classification_officer' ) ;
#53 = EDGE_CURVE ( 'NONE', #30, #30, #163, .T. ) ;
#54 = APPROVAL_STATUS ( 'not_yet_approved' ) ;
#55 = COORDINATED_UNIVERSAL_TIME_OFFSET ( 1, 0, .AHEAD. ) ;
#56 = ORIENTED_EDGE ( 'NONE', *, *, #153, .T. ) ;
#57 = ADVANCED_FACE ( 'NONE', ( #200 ), #10, .F. ) ;
#58 = EDGE_LOOP ( 'NONE', ( #40 ) ) ;
#59 = CC_DESIGN_APPROVAL ( #142, ( #36 ) ) ;
#60 = AXIS2_PLACEMENT_3D ( 'NONE', #133, #195, #84 ) ;
#61 = ORIENTED_EDGE ( 'NONE', *, *, #146, .F. ) ;
#62 = DIRECTION ( 'NONE',  ( 3.491481338843133355E-15, -1.224646799147353207E-16, 1.000000000000000000 ) ) ;
#63 = AXIS2_PLACEMENT_3D ( 'NONE', #98, #47, #64 ) ;
#64 = DIRECTION ( 'NONE',  ( 0.0000000000000000000, 1.000000000000000000, 0.0000000000000000000 ) ) ;
#65 = CC_DESIGN_PERSON_AND_ORGANIZATION_ASSIGNMENT ( #137, #52, ( #216 ) ) ;
#66 = CARTESIAN_POINT ( 'NONE',  ( 5.237222008264700033E-15, 0.1549999999999998324, 1.500000000000000000 ) ) ;
#67 = APPROVAL_PERSON_ORGANIZATION ( #104, #142, #208 ) ;
#68 = PERSON_AND_ORGANIZATION_ROLE ( 'design_owner' ) ;
#69 = PERSON_AND_ORGANIZATION_ROLE ( 'design_supplier' ) ;
#70 = CC_DESIGN_PERSON_AND_ORGANIZATION_ASSIGNMENT ( #16, #69, ( #92 ) ) ;
#71 = COORDINATED_UNIVERSAL_TIME_OFFSET ( 1, 0, .AHEAD. ) ;
#72 = DATE_TIME_ROLE ( 'creation_date' ) ;
#73 = ADVANCED_FACE ( 'NONE', ( #15 ), #115, .F. ) ;
#74 =( GEOMETRIC_REPRESENTATION_CONTEXT ( 3 ) GLOBAL_UNCERTAINTY_ASSIGNED_CONTEXT ( ( #189 ) ) GLOBAL_UNIT_ASSIGNED_CONTEXT ( ( #150, #215, #219 ) ) REPRESENTATION_CONTEXT ( 'NONE', 'WORKASPACE' ) );
#75 = ORIENTED_EDGE ( 'NONE', *, *, #153, .F. ) ;
#76 = EDGE_LOOP ( 'NONE', ( #124 ) ) ;
#77 = EDGE_LOOP ( 'NONE', ( #75 ) ) ;
#78 = EDGE_LOOP ( 'NONE', ( #27 ) ) ;
#79 = PERSON ( 'UNSPECIFIED', 'UNSPECIFIED', 'UNSPECIFIED', ('UNSPECIFIED'), ('UNSPECIFIED'), ('UNSPECIFIED') ) ;
#80 = DIRECTION ( 'NONE',  ( 3.106338619979416777E-31, 1.000000000000000000, 8.743565907141176361E-17 ) ) ;
#81 = CARTESIAN_POINT ( 'NONE',  ( 3.251735139799746228E-16, 0.1549999999999998046, 0.09313339594927279308 ) ) ;
#82 = DIRECTION ( 'NONE',  ( 0.0000000000000000000, 1.000000000000000000, 0.0000000000000000000 ) ) ;
#83 = CIRCLE ( 'NONE', #175, 0.3999999999999989675 ) ;
#84 = DIRECTION ( 'NONE',  ( 0.0000000000000000000, 1.000000000000000000, 0.0000000000000000000 ) ) ;
#85 = CYLINDRICAL_SURFACE ( 'NONE', #180, 0.4999999999999978351 ) ;
#86 = DIRECTION ( 'NONE',  ( 1.000000000000000000, 0.0000000000000000000, 0.0000000000000000000 ) ) ;
#87 = AXIS2_PLACEMENT_3D ( 'NONE', #181, #62, #197 ) ;
#88 = PERSON_AND_ORGANIZATION ( #79, #2 ) ;
#89 = CALENDAR_DATE ( 2021, 8, 10 ) ;
#90 = CALENDAR_DATE ( 2021, 8, 10 ) ;
#91 = DIRECTION ( 'NONE',  ( -3.491481338843133355E-15, 1.224646799147353207E-16, -1.000000000000000000 ) ) ;
#92 = PRODUCT_DEFINITION_FORMATION_WITH_SPECIFIED_SOURCE ( 'ANY', '', #42, .NOT_KNOWN. ) ;
#93 = EDGE_CURVE ( 'NONE', #152, #152, #83, .T. ) ;
#94 = EDGE_LOOP ( 'NONE', ( #23 ) ) ;
#95 = ORIENTED_EDGE ( 'NONE', *, *, #51, .T. ) ;
#96 = EDGE_LOOP ( 'NONE', ( #61 ) ) ;
#97 = CONICAL_SURFACE ( 'NONE', #45, 0.4999999999999966693, 0.2617993877991427465 ) ;
#98 = CARTESIAN_POINT ( 'NONE',  ( 1.043952920314096936E-13, -3.661693929450586610E-15, 29.90000000000000213 ) ) ;
#99 = VERTEX_POINT ( 'NONE', #161 ) ;
#100 = DIRECTION ( 'NONE',  ( 4.275831445896958607E-31, 1.000000000000000000, 1.224646799147353207E-16 ) ) ;
#101 = CARTESIAN_POINT ( 'NONE',  ( 1.043952920314096936E-13, 0.4999999999999954481, 29.90000000000000213 ) ) ;
#102 = APPLICATION_PROTOCOL_DEFINITION ( 'international standard', 'config_control_design', 1994, #39 ) ;
#103 = APPROVAL_PERSON_ORGANIZATION ( #122, #26, #109 ) ;
#104 = PERSON_AND_ORGANIZATION ( #79, #2 ) ;
#105 = CALENDAR_DATE ( 2021, 8, 10 ) ;
#106 = PERSON_AND_ORGANIZATION ( #79, #2 ) ;
#107 = ADVANCED_FACE ( 'NONE', ( #176 ), #48, .T. ) ;
#108 = CONICAL_SURFACE ( 'NONE', #201, 0.3999999999999989675, 0.7853981633974694843 ) ;
#109 = APPROVAL_ROLE ( '' ) ;
#110 = CARTESIAN_POINT ( 'NONE',  ( 9.732705092097983894E-15, -3.413773404852915732E-16, 2.787557528611284585 ) ) ;
#111 = EDGE_LOOP ( 'NONE', ( #190 ) ) ;
#112 = DIRECTION ( 'NONE',  ( 3.491481338843133355E-15, -1.224646799147353207E-16, 1.000000000000000000 ) ) ;
#113 = CC_DESIGN_PERSON_AND_ORGANIZATION_ASSIGNMENT ( #106, #222, ( #36 ) ) ;
#114 = FACE_OUTER_BOUND ( 'NONE', #24, .T. ) ;
#115 = PLANE ( 'NONE',  #210 ) ;
#116 = DIRECTION ( 'NONE',  ( -3.106338619979416777E-31, -1.000000000000000000, -8.743565907141176361E-17 ) ) ;
#117 = DIRECTION ( 'NONE',  ( 4.275831445896958607E-31, 1.000000000000000000, 1.224646799147353207E-16 ) ) ;
#118 = CARTESIAN_POINT ( 'NONE',  ( 0.0000000000000000000, 0.0000000000000000000, 0.0000000000000000000 ) ) ;
#119 = CALENDAR_DATE ( 2021, 8, 10 ) ;
#120 = DIRECTION ( 'NONE',  ( 0.0000000000000000000, 0.0000000000000000000, 1.000000000000000000 ) ) ;
#121 = SHAPE_DEFINITION_REPRESENTATION ( #126, #178 ) ;
#122 = PERSON_AND_ORGANIZATION ( #79, #2 ) ;
#123 = CIRCLE ( 'NONE', #6, 0.4999999999999966693 ) ;
#124 = ORIENTED_EDGE ( 'NONE', *, *, #53, .F. ) ;
#125 = APPROVAL ( #17, 'UNSPECIFIED' ) ;
#126 = PRODUCT_DEFINITION_SHAPE ( 'NONE', 'NONE',  #36 ) ;
#127 = DIRECTION ( 'NONE',  ( -3.491481338843133355E-15, 1.224646799147353207E-16, -1.000000000000000000 ) ) ;
#128 = FACE_BOUND ( 'NONE', #96, .T. ) ;
#129 = DIRECTION ( 'NONE',  ( -4.275831445896958607E-31, -1.000000000000000000, -1.224646799147353207E-16 ) ) ;
#130 = CC_DESIGN_SECURITY_CLASSIFICATION ( #216, ( #92 ) ) ;
#131 = CC_DESIGN_PERSON_AND_ORGANIZATION_ASSIGNMENT ( #3, #182, ( #92 ) ) ;
#132 = FACE_OUTER_BOUND ( 'NONE', #212, .T. ) ;
#133 = CARTESIAN_POINT ( 'NONE',  ( 5.237222008264700033E-15, -1.836970198721029934E-16, 1.500000000000000000 ) ) ;
#134 = VERTEX_POINT ( 'NONE', #177 ) ;
#135 = CIRCLE ( 'NONE', #60, 0.1550000000000000266 ) ;
#136 = PERSON_AND_ORGANIZATION ( #79, #2 ) ;
#137 = PERSON_AND_ORGANIZATION ( #79, #2 ) ;
#138 = APPROVAL_DATE_TIME ( #204, #125 ) ;
#139 = AXIS2_PLACEMENT_3D ( 'NONE', #217, #214, #116 ) ;
#140 = DATE_AND_TIME ( #90, #147 ) ;
#141 = MECHANICAL_CONTEXT ( 'NONE', #18, 'mechanical' ) ;
#142 = APPROVAL ( #169, 'UNSPECIFIED' ) ;
#143 = CC_DESIGN_APPROVAL ( #125, ( #92 ) ) ;
#144 = CARTESIAN_POINT ( 'NONE',  ( 3.251735139799745735E-16, -1.140555152429999755E-17, 0.09313339594927277920 ) ) ;
#145 = MANIFOLD_SOLID_BREP ( 'Corps-Déplacer/Copier1[1]', #28 ) ;
#146 = EDGE_CURVE ( 'NONE', #99, #99, #135, .T. ) ;
#147 = LOCAL_TIME ( 7, 16, 19.00000000000000000, #185 ) ;
#148 = ORIENTED_EDGE ( 'NONE', *, *, #51, .F. ) ;
#149 = CARTESIAN_POINT ( 'NONE',  ( 0.0000000000000000000, 0.0000000000000000000, 0.0000000000000000000 ) ) ;
#150 =( LENGTH_UNIT ( ) NAMED_UNIT ( * ) SI_UNIT ( .MILLI., .METRE. ) );
#151 = CYLINDRICAL_SURFACE ( 'NONE', #184, 0.1549999999999999156 ) ;
#152 = VERTEX_POINT ( 'NONE', #164 ) ;
#153 = EDGE_CURVE ( 'NONE', #165, #165, #206, .T. ) ;
#154 = AXIS2_PLACEMENT_3D ( 'NONE', #144, #174, #80 ) ;
#155 = DATE_AND_TIME ( #89, #35 ) ;
#156 = ADVANCED_FACE ( 'NONE', ( #114, #132 ), #85, .T. ) ;
#157 = CARTESIAN_POINT ( 'NONE',  ( 1.047444401652940007E-13, -3.673940397442059178E-15, 30.00000000000000000 ) ) ;
#158 = ORIENTED_EDGE ( 'NONE', *, *, #7, .T. ) ;
#159 = AXIS2_PLACEMENT_3D ( 'NONE', #168, #120, #86 ) ;
#160 = DIRECTION ( 'NONE',  ( -3.491481338843133355E-15, 1.224646799147353207E-16, -1.000000000000000000 ) ) ;
#161 = CARTESIAN_POINT ( 'NONE',  ( 5.237222008264700033E-15, 0.1549999999999998324, 1.500000000000000000 ) ) ;
#162 = DIRECTION ( 'NONE',  ( -3.491481338843133355E-15, 1.224646799147353207E-16, -1.000000000000000000 ) ) ;
#163 = CIRCLE ( 'NONE', #154, 0.1549999999999998046 ) ;
#164 = CARTESIAN_POINT ( 'NONE',  ( 1.047444401652940007E-13, 0.3999999999999953038, 30.00000000000000000 ) ) ;
#165 = VERTEX_POINT ( 'NONE', #101 ) ;
#166 = ADVANCED_FACE ( 'NONE', ( #198, #46 ), #151, .T. ) ;
#167 = COORDINATED_UNIVERSAL_TIME_OFFSET ( 1, 0, .AHEAD. ) ;
#168 = CARTESIAN_POINT ( 'NONE',  ( 0.0000000000000000000, 0.0000000000000000000, 0.0000000000000000000 ) ) ;
#169 = APPROVAL_STATUS ( 'not_yet_approved' ) ;
#170 = COORDINATED_UNIVERSAL_TIME_OFFSET ( 1, 0, .AHEAD. ) ;
#171 = DIRECTION ( 'NONE',  ( 0.0000000000000000000, 1.000000000000000000, 0.0000000000000000000 ) ) ;
#172 = EDGE_LOOP ( 'NONE', ( #95 ) ) ;
#173 = CIRCLE ( 'NONE', #12, 0.1550000000000000266 ) ;
#174 = DIRECTION ( 'NONE',  ( -3.491481338843133355E-15, 1.224646799147353207E-16, -1.000000000000000000 ) ) ;
#175 = AXIS2_PLACEMENT_3D ( 'NONE', #202, #220, #82 ) ;
#176 = FACE_OUTER_BOUND ( 'NONE', #78, .T. ) ;
#177 = CARTESIAN_POINT ( 'NONE',  ( 9.732705092097983894E-15, 0.4999999999999963363, 2.787557528611284585 ) ) ;
#178 = ADVANCED_BREP_SHAPE_REPRESENTATION ( '952663', ( #145, #218, #159 ), #74 ) ;
#179 = CONICAL_SURFACE ( 'NONE', #139, 0.1549999999999998046, 1.029744258676649649 ) ;
#180 = AXIS2_PLACEMENT_3D ( 'NONE', #118, #162, #117 ) ;
#181 = CARTESIAN_POINT ( 'NONE',  ( 5.237222008264700033E-15, 1.162313831562937012E-33, 1.500000000000000000 ) ) ;
#182 = PERSON_AND_ORGANIZATION_ROLE ( 'creator' ) ;
#183 = APPLICATION_PROTOCOL_DEFINITION ( 'international standard', 'config_control_design', 1994, #18 ) ;
#184 = AXIS2_PLACEMENT_3D ( 'NONE', #149, #32, #33 ) ;
#185 = COORDINATED_UNIVERSAL_TIME_OFFSET ( 1, 0, .AHEAD. ) ;
#186 = PRODUCT_RELATED_PRODUCT_CATEGORY ( 'detail', '', ( #42 ) ) ;
#187 = APPROVAL_PERSON_ORGANIZATION ( #88, #125, #223 ) ;
#188 = DIRECTION ( 'NONE',  ( 0.0000000000000000000, 1.000000000000000000, 0.0000000000000000000 ) ) ;
#189 = UNCERTAINTY_MEASURE_WITH_UNIT (LENGTH_MEASURE( 1.000000000000000082E-05 ), #150, 'distance_accuracy_value', 'NONE');
#190 = ORIENTED_EDGE ( 'NONE', *, *, #146, .T. ) ;
#191 = ADVANCED_FACE ( 'NONE', ( #14 ), #179, .T. ) ;
#192 = CARTESIAN_POINT ( 'NONE',  ( 9.732705092097983894E-15, -3.413773404852915732E-16, 2.787557528611284585 ) ) ;
#193 = EDGE_LOOP ( 'NONE', ( #158 ) ) ;
#194 = DIRECTION ( 'NONE',  ( 0.0000000000000000000, -1.000000000000000000, 0.0000000000000000000 ) ) ;
#195 = DIRECTION ( 'NONE',  ( -3.491481338843133355E-15, 1.224646799147353207E-16, -1.000000000000000000 ) ) ;
#196 = LOCAL_TIME ( 7, 16, 19.00000000000000000, #170 ) ;
#197 = DIRECTION ( 'NONE',  ( -4.275831445896958607E-31, -1.000000000000000000, -1.224646799147353207E-16 ) ) ;
#198 = FACE_OUTER_BOUND ( 'NONE', #76, .T. ) ;
#199 = CC_DESIGN_DATE_AND_TIME_ASSIGNMENT ( #203, #72, ( #36 ) ) ;
#200 = FACE_OUTER_BOUND ( 'NONE', #94, .T. ) ;
#201 = AXIS2_PLACEMENT_3D ( 'NONE', #157, #127, #4 ) ;
#202 = CARTESIAN_POINT ( 'NONE',  ( 1.047444401652940007E-13, -3.673940397442059178E-15, 30.00000000000000000 ) ) ;
#203 = DATE_AND_TIME ( #105, #49 ) ;
#204 = DATE_AND_TIME ( #119, #21 ) ;
#205 = APPROVAL_DATE_TIME ( #155, #26 ) ;
#206 = CIRCLE ( 'NONE', #63, 0.4999999999999991673 ) ;
#207 = DATE_TIME_ROLE ( 'classification_date' ) ;
#208 = APPROVAL_ROLE ( '' ) ;
#209 = ORIENTED_EDGE ( 'NONE', *, *, #53, .T. ) ;
#210 = AXIS2_PLACEMENT_3D ( 'NONE', #44, #50, #129 ) ;
#211 = EDGE_LOOP ( 'NONE', ( #209 ) ) ;
#212 = EDGE_LOOP ( 'NONE', ( #56 ) ) ;
#213 = CC_DESIGN_DATE_AND_TIME_ASSIGNMENT ( #1, #207, ( #216 ) ) ;
#214 = DIRECTION ( 'NONE',  ( 3.491481338843133355E-15, -1.224646799147353207E-16, 1.000000000000000000 ) ) ;
#215 =( NAMED_UNIT ( * ) PLANE_ANGLE_UNIT ( ) SI_UNIT ( $, .RADIAN. ) );
#216 = SECURITY_CLASSIFICATION ( '', '', #20 ) ;
#217 = CARTESIAN_POINT ( 'NONE',  ( 3.251735139799745735E-16, -1.140555152429999755E-17, 0.09313339594927277920 ) ) ;
#218 = MANIFOLD_SOLID_BREP ( 'Corps-Déplacer/Copier1[2]', #41 ) ;
#219 =( NAMED_UNIT ( * ) SI_UNIT ( $, .STERADIAN. ) SOLID_ANGLE_UNIT ( ) );
#220 = DIRECTION ( 'NONE',  ( -3.491481338843133355E-15, 1.224646799147353207E-16, -1.000000000000000000 ) ) ;
#221 = CC_DESIGN_APPROVAL ( #26, ( #216 ) ) ;
#222 = PERSON_AND_ORGANIZATION_ROLE ( 'creator' ) ;
#223 = APPROVAL_ROLE ( '' ) ;
ENDSEC;
END-ISO-10303-21;
