ISO-10303-21;
HEADER;
FILE_DESCRIPTION (( 'STEP AP203' ),
    '1' );
FILE_NAME ('952662.step',
    '2021-10-08T05:16:18',
    ( '' ),
    ( '' ),
    'SwSTEP 2.0',
    'SolidWorks 2019',
    '' );
FILE_SCHEMA (( 'CONFIG_CONTROL_DESIGN' ));
ENDSEC;

DATA;
#1 = ORGANIZATION ( 'UNSPECIFIED', 'UNSPECIFIED', '' ) ;
#2 = EDGE_CURVE ( 'NONE', #122, #122, #75, .T. ) ;
#3 = COORDINATED_UNIVERSAL_TIME_OFFSET ( 1, 0, .AHEAD. ) ;
#4 = PERSON_AND_ORGANIZATION ( #192, #1 ) ;
#5 = CC_DESIGN_PERSON_AND_ORGANIZATION_ASSIGNMENT ( #17, #206, ( #77 ) ) ;
#6 = DIRECTION ( 'NONE',  ( 0.0000000000000000000, 1.000000000000000000, 0.0000000000000000000 ) ) ;
#7 = DIRECTION ( 'NONE',  ( -3.491481338843133355E-15, 1.224646799147353207E-16, -1.000000000000000000 ) ) ;
#8 = FACE_OUTER_BOUND ( 'NONE', #91, .T. ) ;
#9 = CONICAL_SURFACE ( 'NONE', #69, 0.3999999999999989675, 0.7853981633974694843 ) ;
#10 = DIRECTION ( 'NONE',  ( -3.491481338843133355E-15, 1.224646799147353207E-16, -1.000000000000000000 ) ) ;
#11 = APPROVAL_DATE_TIME ( #189, #202 ) ;
#12 = AXIS2_PLACEMENT_3D ( 'NONE', #129, #149, #220 ) ;
#13 = SHAPE_DEFINITION_REPRESENTATION ( #153, #125 ) ;
#14 = LOCAL_TIME ( 7, 16, 18.00000000000000000, #64 ) ;
#15 = PERSON_AND_ORGANIZATION ( #192, #1 ) ;
#16 = AXIS2_PLACEMENT_3D ( 'NONE', #199, #144, #49 ) ;
#17 = PERSON_AND_ORGANIZATION ( #192, #1 ) ;
#18 = DIRECTION ( 'NONE',  ( 4.275831445896958607E-31, 1.000000000000000000, 1.224646799147353207E-16 ) ) ;
#19 = CC_DESIGN_PERSON_AND_ORGANIZATION_ASSIGNMENT ( #223, #157, ( #218 ) ) ;
#20 = CARTESIAN_POINT ( 'NONE',  ( 9.797857020849190586E-15, 0.4999999999999963363, 2.806217782649129244 ) ) ;
#21 = DIRECTION ( 'NONE',  ( -3.209883240645396300E-31, -1.000000000000000000, -9.035018104045879322E-17 ) ) ;
#22 = FACE_BOUND ( 'NONE', #139, .T. ) ;
#23 = CARTESIAN_POINT ( 'NONE',  ( 1.043952920314096936E-13, 0.4999999999999954481, 29.90000000000000213 ) ) ;
#24 = DESIGN_CONTEXT ( 'detailed design', #203, 'design' ) ;
#25 = ORIENTED_EDGE ( 'NONE', *, *, #78, .F. ) ;
#26 = APPROVAL ( #135, 'UNSPECIFIED' ) ;
#27 = ORIENTED_EDGE ( 'NONE', *, *, #42, .T. ) ;
#28 = DIRECTION ( 'NONE',  ( -3.491481338843133355E-15, 1.224646799147353207E-16, -1.000000000000000000 ) ) ;
#29 = LOCAL_TIME ( 7, 16, 18.00000000000000000, #152 ) ;
#30 = PERSON_AND_ORGANIZATION ( #192, #1 ) ;
#31 = PERSON_AND_ORGANIZATION ( #192, #1 ) ;
#32 = COORDINATED_UNIVERSAL_TIME_OFFSET ( 1, 0, .AHEAD. ) ;
#33 = DIRECTION ( 'NONE',  ( -3.491481338843133355E-15, 1.224646799147353207E-16, -1.000000000000000000 ) ) ;
#34 = DIRECTION ( 'NONE',  ( 1.000000000000000000, 0.0000000000000000000, 0.0000000000000000000 ) ) ;
#35 = PRODUCT_RELATED_PRODUCT_CATEGORY ( 'detail', '', ( #47 ) ) ;
#36 = PERSON_AND_ORGANIZATION ( #192, #1 ) ;
#37 = VERTEX_POINT ( 'NONE', #20 ) ;
#38 = CARTESIAN_POINT ( 'NONE',  ( 1.047444401652940007E-13, -3.673940397442059178E-15, 30.00000000000000000 ) ) ;
#39 = ADVANCED_FACE ( 'NONE', ( #117 ), #98, .F. ) ;
#40 = CARTESIAN_POINT ( 'NONE',  ( 5.237222008264700033E-15, 0.1499999999999998834, 1.500000000000000000 ) ) ;
#41 = FACE_OUTER_BOUND ( 'NONE', #92, .T. ) ;
#42 = EDGE_CURVE ( 'NONE', #196, #196, #138, .T. ) ;
#43 = CIRCLE ( 'NONE', #222, 0.3999999999999989675 ) ;
#44 = DATE_TIME_ROLE ( 'classification_date' ) ;
#45 = COORDINATED_UNIVERSAL_TIME_OFFSET ( 1, 0, .AHEAD. ) ;
#46 = ORIENTED_EDGE ( 'NONE', *, *, #84, .F. ) ;
#47 = PRODUCT ( '952662', '952662', '', ( #85 ) ) ;
#48 = DATE_AND_TIME ( #205, #215 ) ;
#49 = DIRECTION ( 'NONE',  ( 4.275831445896958607E-31, 1.000000000000000000, 1.224646799147353207E-16 ) ) ;
#50 = AXIS2_PLACEMENT_3D ( 'NONE', #89, #159, #143 ) ;
#51 = DIRECTION ( 'NONE',  ( 3.491481338843133355E-15, -1.224646799147353207E-16, 1.000000000000000000 ) ) ;
#52 = CARTESIAN_POINT ( 'NONE',  ( 5.237222008264700033E-15, 1.124819836996390982E-33, 1.500000000000000000 ) ) ;
#53 = DIRECTION ( 'NONE',  ( 3.491481338843133355E-15, -1.224646799147353207E-16, 1.000000000000000000 ) ) ;
#54 = CONICAL_SURFACE ( 'NONE', #57, 0.1499999999999998557, 1.029744258676649649 ) ;
#55 = PRODUCT_DEFINITION ( 'UNKNOWN', '', #77, #24 ) ;
#56 = DIRECTION ( 'NONE',  ( -3.491481338843133355E-15, 1.224646799147353207E-16, -1.000000000000000000 ) ) ;
#57 = AXIS2_PLACEMENT_3D ( 'NONE', #101, #66, #21 ) ;
#58 = CC_DESIGN_DATE_AND_TIME_ASSIGNMENT ( #133, #113, ( #55 ) ) ;
#59 = APPROVAL_STATUS ( 'not_yet_approved' ) ;
#60 =( NAMED_UNIT ( * ) SI_UNIT ( $, .STERADIAN. ) SOLID_ANGLE_UNIT ( ) );
#61 = ORIENTED_EDGE ( 'NONE', *, *, #120, .F. ) ;
#62 = APPROVAL_ROLE ( '' ) ;
#63 = MANIFOLD_SOLID_BREP ( 'Corps-Déplacer/Copier1[1]', #166 ) ;
#64 = COORDINATED_UNIVERSAL_TIME_OFFSET ( 1, 0, .AHEAD. ) ;
#65 = CARTESIAN_POINT ( 'NONE',  ( 5.237222008264700033E-15, -1.836970198721029934E-16, 1.500000000000000000 ) ) ;
#66 = DIRECTION ( 'NONE',  ( 3.491481338843133355E-15, -1.224646799147353207E-16, 1.000000000000000000 ) ) ;
#67 = CARTESIAN_POINT ( 'NONE',  ( 5.237222008264700033E-15, 1.124819836996390982E-33, 1.500000000000000000 ) ) ;
#68 = DIRECTION ( 'NONE',  ( -4.275831445896958607E-31, -1.000000000000000000, -1.224646799147353207E-16 ) ) ;
#69 = AXIS2_PLACEMENT_3D ( 'NONE', #194, #7, #6 ) ;
#70 = APPROVAL ( #59, 'UNSPECIFIED' ) ;
#71 = CIRCLE ( 'NONE', #193, 0.4999999999999966693 ) ;
#72 = FACE_OUTER_BOUND ( 'NONE', #137, .T. ) ;
#73 = EDGE_LOOP ( 'NONE', ( #163 ) ) ;
#74 = ADVANCED_FACE ( 'NONE', ( #72, #132 ), #214, .T. ) ;
#75 = CIRCLE ( 'NONE', #175, 0.1500000000000000777 ) ;
#76 = APPLICATION_CONTEXT ( 'configuration controlled 3d designs of mechanical parts and assemblies' ) ;
#77 = PRODUCT_DEFINITION_FORMATION_WITH_SPECIFIED_SOURCE ( 'ANY', '', #47, .NOT_KNOWN. ) ;
#78 = EDGE_CURVE ( 'NONE', #105, #105, #151, .T. ) ;
#79 = DIRECTION ( 'NONE',  ( 0.0000000000000000000, 1.000000000000000000, 0.0000000000000000000 ) ) ;
#80 = APPROVAL_ROLE ( '' ) ;
#81 = CARTESIAN_POINT ( 'NONE',  ( 5.237222008264700033E-15, -1.836970198721029934E-16, 1.500000000000000000 ) ) ;
#82 = CC_DESIGN_APPROVAL ( #202, ( #55 ) ) ;
#83 = CARTESIAN_POINT ( 'NONE',  ( 0.0000000000000000000, 0.0000000000000000000, 0.0000000000000000000 ) ) ;
#84 = EDGE_CURVE ( 'NONE', #37, #37, #71, .T. ) ;
#85 = MECHANICAL_CONTEXT ( 'NONE', #76, 'mechanical' ) ;
#86 = EDGE_LOOP ( 'NONE', ( #61 ) ) ;
#87 = CC_DESIGN_APPROVAL ( #26, ( #77 ) ) ;
#88 = VERTEX_POINT ( 'NONE', #178 ) ;
#89 = CARTESIAN_POINT ( 'NONE',  ( 9.797857020849190586E-15, -3.436625625231638939E-16, 2.806217782649129244 ) ) ;
#90 = CARTESIAN_POINT ( 'NONE',  ( 5.237222008264700033E-15, 0.1499999999999998834, 1.500000000000000000 ) ) ;
#91 = EDGE_LOOP ( 'NONE', ( #195 ) ) ;
#92 = EDGE_LOOP ( 'NONE', ( #219 ) ) ;
#93 = EDGE_CURVE ( 'NONE', #161, #161, #156, .T. ) ;
#94 = APPROVAL_STATUS ( 'not_yet_approved' ) ;
#95 = APPROVAL_DATE_TIME ( #99, #70 ) ;
#96 =( NAMED_UNIT ( * ) PLANE_ANGLE_UNIT ( ) SI_UNIT ( $, .RADIAN. ) );
#97 = APPROVAL_DATE_TIME ( #48, #26 ) ;
#98 = PLANE ( 'NONE',  #147 ) ;
#99 = DATE_AND_TIME ( #115, #14 ) ;
#100 = ADVANCED_FACE ( 'NONE', ( #8 ), #54, .T. ) ;
#101 = CARTESIAN_POINT ( 'NONE',  ( 3.146840457870721917E-16, -1.103763050738709405E-17, 0.09012909285413495120 ) ) ;
#102 = APPROVAL_PERSON_ORGANIZATION ( #31, #202, #62 ) ;
#103 = FACE_OUTER_BOUND ( 'NONE', #108, .T. ) ;
#104 = CARTESIAN_POINT ( 'NONE',  ( 3.146840457870722410E-16, 0.1499999999999998557, 0.09012909285413496507 ) ) ;
#105 = VERTEX_POINT ( 'NONE', #104 ) ;
#106 = CC_DESIGN_APPROVAL ( #70, ( #218 ) ) ;
#107 = CARTESIAN_POINT ( 'NONE',  ( 3.146840457870721917E-16, -1.103763050738709405E-17, 0.09012909285413495120 ) ) ;
#108 = EDGE_LOOP ( 'NONE', ( #209 ) ) ;
#109 = LOCAL_TIME ( 7, 16, 18.00000000000000000, #45 ) ;
#110 = CC_DESIGN_PERSON_AND_ORGANIZATION_ASSIGNMENT ( #36, #136, ( #55 ) ) ;
#111 = AXIS2_PLACEMENT_3D ( 'NONE', #168, #10, #79 ) ;
#112 = DIRECTION ( 'NONE',  ( 0.0000000000000000000, 1.000000000000000000, 0.0000000000000000000 ) ) ;
#113 = DATE_TIME_ROLE ( 'creation_date' ) ;
#114 = EDGE_LOOP ( 'NONE', ( #187 ) ) ;
#115 = CALENDAR_DATE ( 2021, 8, 10 ) ;
#116 = ADVANCED_FACE ( 'NONE', ( #176, #213 ), #123, .T. ) ;
#117 = FACE_OUTER_BOUND ( 'NONE', #86, .T. ) ;
#118 = PERSON_AND_ORGANIZATION_ROLE ( 'design_owner' ) ;
#119 = CALENDAR_DATE ( 2021, 8, 10 ) ;
#120 = EDGE_CURVE ( 'NONE', #88, #88, #43, .T. ) ;
#121 = EDGE_LOOP ( 'NONE', ( #46 ) ) ;
#122 = VERTEX_POINT ( 'NONE', #40 ) ;
#123 = CONICAL_SURFACE ( 'NONE', #50, 0.4999999999999966693, 0.2617993877991427465 ) ;
#124 = EDGE_LOOP ( 'NONE', ( #150 ) ) ;
#125 = ADVANCED_BREP_SHAPE_REPRESENTATION ( '952662', ( #63, #221, #126 ), #141 ) ;
#126 = AXIS2_PLACEMENT_3D ( 'NONE', #83, #170, #34 ) ;
#127 = DIRECTION ( 'NONE',  ( 0.0000000000000000000, 1.000000000000000000, 0.0000000000000000000 ) ) ;
#128 = PLANE ( 'NONE',  #183 ) ;
#129 = CARTESIAN_POINT ( 'NONE',  ( 0.0000000000000000000, 0.0000000000000000000, 0.0000000000000000000 ) ) ;
#130 = LOCAL_TIME ( 7, 16, 18.00000000000000000, #32 ) ;
#131 = EDGE_LOOP ( 'NONE', ( #27 ) ) ;
#132 = FACE_OUTER_BOUND ( 'NONE', #131, .T. ) ;
#133 = DATE_AND_TIME ( #140, #130 ) ;
#134 = CARTESIAN_POINT ( 'NONE',  ( 1.047444401652940007E-13, 2.999519565323652267E-33, 30.00000000000000000 ) ) ;
#135 = APPROVAL_STATUS ( 'not_yet_approved' ) ;
#136 = PERSON_AND_ORGANIZATION_ROLE ( 'creator' ) ;
#137 = EDGE_LOOP ( 'NONE', ( #25 ) ) ;
#138 = CIRCLE ( 'NONE', #184, 0.1500000000000000777 ) ;
#139 = EDGE_LOOP ( 'NONE', ( #164 ) ) ;
#140 = CALENDAR_DATE ( 2021, 8, 10 ) ;
#141 =( GEOMETRIC_REPRESENTATION_CONTEXT ( 3 ) GLOBAL_UNCERTAINTY_ASSIGNED_CONTEXT ( ( #217 ) ) GLOBAL_UNIT_ASSIGNED_CONTEXT ( ( #211, #96, #60 ) ) REPRESENTATION_CONTEXT ( 'NONE', 'WORKASPACE' ) );
#142 = DIRECTION ( 'NONE',  ( -3.491481338843133355E-15, 1.224646799147353207E-16, -1.000000000000000000 ) ) ;
#143 = DIRECTION ( 'NONE',  ( 0.0000000000000000000, -1.000000000000000000, 0.0000000000000000000 ) ) ;
#144 = DIRECTION ( 'NONE',  ( -3.491481338843133355E-15, 1.224646799147353207E-16, -1.000000000000000000 ) ) ;
#145 = APPROVAL_PERSON_ORGANIZATION ( #15, #26, #190 ) ;
#146 = FACE_OUTER_BOUND ( 'NONE', #121, .T. ) ;
#147 = AXIS2_PLACEMENT_3D ( 'NONE', #134, #174, #18 ) ;
#148 = CC_DESIGN_PERSON_AND_ORGANIZATION_ASSIGNMENT ( #186, #173, ( #77 ) ) ;
#149 = DIRECTION ( 'NONE',  ( -3.491481338843133355E-15, 1.224646799147353207E-16, -1.000000000000000000 ) ) ;
#150 = ORIENTED_EDGE ( 'NONE', *, *, #84, .T. ) ;
#151 = CIRCLE ( 'NONE', #200, 0.1499999999999998557 ) ;
#152 = COORDINATED_UNIVERSAL_TIME_OFFSET ( 1, 0, .AHEAD. ) ;
#153 = PRODUCT_DEFINITION_SHAPE ( 'NONE', 'NONE',  #55 ) ;
#154 = ADVANCED_FACE ( 'NONE', ( #179 ), #128, .F. ) ;
#155 = CALENDAR_DATE ( 2021, 8, 10 ) ;
#156 = CIRCLE ( 'NONE', #111, 0.4999999999999991673 ) ;
#157 = PERSON_AND_ORGANIZATION_ROLE ( 'classification_officer' ) ;
#158 = APPLICATION_PROTOCOL_DEFINITION ( 'international standard', 'config_control_design', 1994, #203 ) ;
#159 = DIRECTION ( 'NONE',  ( 3.491481338843133355E-15, -1.224646799147353207E-16, 1.000000000000000000 ) ) ;
#160 = CYLINDRICAL_SURFACE ( 'NONE', #16, 0.4999999999999978351 ) ;
#161 = VERTEX_POINT ( 'NONE', #23 ) ;
#162 = DIRECTION ( 'NONE',  ( 3.209883240645396300E-31, 1.000000000000000000, 9.035018104045879322E-17 ) ) ;
#163 = ORIENTED_EDGE ( 'NONE', *, *, #2, .T. ) ;
#164 = ORIENTED_EDGE ( 'NONE', *, *, #120, .T. ) ;
#165 = CC_DESIGN_SECURITY_CLASSIFICATION ( #218, ( #77 ) ) ;
#166 = CLOSED_SHELL ( 'NONE', ( #154, #116, #169, #208, #39 ) ) ;
#167 = CARTESIAN_POINT ( 'NONE',  ( 9.797857020849190586E-15, -3.436625625231638939E-16, 2.806217782649129244 ) ) ;
#168 = CARTESIAN_POINT ( 'NONE',  ( 1.043952920314096936E-13, -3.661693929450586610E-15, 29.90000000000000213 ) ) ;
#169 = ADVANCED_FACE ( 'NONE', ( #146, #216 ), #160, .T. ) ;
#170 = DIRECTION ( 'NONE',  ( 0.0000000000000000000, 0.0000000000000000000, 1.000000000000000000 ) ) ;
#171 = DATE_AND_TIME ( #119, #109 ) ;
#172 = APPLICATION_PROTOCOL_DEFINITION ( 'international standard', 'config_control_design', 1994, #76 ) ;
#173 = PERSON_AND_ORGANIZATION_ROLE ( 'creator' ) ;
#174 = DIRECTION ( 'NONE',  ( -3.491481338843133355E-15, 1.224646799147353207E-16, -1.000000000000000000 ) ) ;
#175 = AXIS2_PLACEMENT_3D ( 'NONE', #81, #33, #191 ) ;
#176 = FACE_BOUND ( 'NONE', #114, .T. ) ;
#177 = APPROVAL_PERSON_ORGANIZATION ( #4, #70, #80 ) ;
#178 = CARTESIAN_POINT ( 'NONE',  ( 1.047444401652940007E-13, 0.3999999999999953038, 30.00000000000000000 ) ) ;
#179 = FACE_OUTER_BOUND ( 'NONE', #73, .T. ) ;
#180 = PLANE ( 'NONE',  #197 ) ;
#181 = DIRECTION ( 'NONE',  ( 0.0000000000000000000, 1.000000000000000000, 0.0000000000000000000 ) ) ;
#182 = CC_DESIGN_DATE_AND_TIME_ASSIGNMENT ( #171, #44, ( #218 ) ) ;
#183 = AXIS2_PLACEMENT_3D ( 'NONE', #52, #53, #68 ) ;
#184 = AXIS2_PLACEMENT_3D ( 'NONE', #65, #142, #181 ) ;
#185 = CC_DESIGN_PERSON_AND_ORGANIZATION_ASSIGNMENT ( #30, #118, ( #47 ) ) ;
#186 = PERSON_AND_ORGANIZATION ( #192, #1 ) ;
#187 = ORIENTED_EDGE ( 'NONE', *, *, #2, .F. ) ;
#188 = SECURITY_CLASSIFICATION_LEVEL ( 'unclassified' ) ;
#189 = DATE_AND_TIME ( #155, #29 ) ;
#190 = APPROVAL_ROLE ( '' ) ;
#191 = DIRECTION ( 'NONE',  ( 0.0000000000000000000, 1.000000000000000000, 0.0000000000000000000 ) ) ;
#192 = PERSON ( 'UNSPECIFIED', 'UNSPECIFIED', 'UNSPECIFIED', ('UNSPECIFIED'), ('UNSPECIFIED'), ('UNSPECIFIED') ) ;
#193 = AXIS2_PLACEMENT_3D ( 'NONE', #167, #28, #112 ) ;
#194 = CARTESIAN_POINT ( 'NONE',  ( 1.047444401652940007E-13, -3.673940397442059178E-15, 30.00000000000000000 ) ) ;
#195 = ORIENTED_EDGE ( 'NONE', *, *, #78, .T. ) ;
#196 = VERTEX_POINT ( 'NONE', #90 ) ;
#197 = AXIS2_PLACEMENT_3D ( 'NONE', #67, #51, #198 ) ;
#198 = DIRECTION ( 'NONE',  ( -4.275831445896958607E-31, -1.000000000000000000, -1.224646799147353207E-16 ) ) ;
#199 = CARTESIAN_POINT ( 'NONE',  ( 0.0000000000000000000, 0.0000000000000000000, 0.0000000000000000000 ) ) ;
#200 = AXIS2_PLACEMENT_3D ( 'NONE', #107, #56, #162 ) ;
#201 = ORIENTED_EDGE ( 'NONE', *, *, #93, .T. ) ;
#202 = APPROVAL ( #94, 'UNSPECIFIED' ) ;
#203 = APPLICATION_CONTEXT ( 'configuration controlled 3d designs of mechanical parts and assemblies' ) ;
#204 = EDGE_LOOP ( 'NONE', ( #201 ) ) ;
#205 = CALENDAR_DATE ( 2021, 8, 10 ) ;
#206 = PERSON_AND_ORGANIZATION_ROLE ( 'design_supplier' ) ;
#207 = DIRECTION ( 'NONE',  ( -3.491481338843133355E-15, 1.224646799147353207E-16, -1.000000000000000000 ) ) ;
#208 = ADVANCED_FACE ( 'NONE', ( #103, #22 ), #9, .T. ) ;
#209 = ORIENTED_EDGE ( 'NONE', *, *, #93, .F. ) ;
#210 = CLOSED_SHELL ( 'NONE', ( #100, #74, #212 ) ) ;
#211 =( LENGTH_UNIT ( ) NAMED_UNIT ( * ) SI_UNIT ( .MILLI., .METRE. ) );
#212 = ADVANCED_FACE ( 'NONE', ( #41 ), #180, .T. ) ;
#213 = FACE_OUTER_BOUND ( 'NONE', #124, .T. ) ;
#214 = CYLINDRICAL_SURFACE ( 'NONE', #12, 0.1499999999999999667 ) ;
#215 = LOCAL_TIME ( 7, 16, 18.00000000000000000, #3 ) ;
#216 = FACE_OUTER_BOUND ( 'NONE', #204, .T. ) ;
#217 = UNCERTAINTY_MEASURE_WITH_UNIT (LENGTH_MEASURE( 1.000000000000000082E-05 ), #211, 'distance_accuracy_value', 'NONE');
#218 = SECURITY_CLASSIFICATION ( '', '', #188 ) ;
#219 = ORIENTED_EDGE ( 'NONE', *, *, #42, .F. ) ;
#220 = DIRECTION ( 'NONE',  ( 4.275831445896958607E-31, 1.000000000000000000, 1.224646799147353207E-16 ) ) ;
#221 = MANIFOLD_SOLID_BREP ( 'Corps-Déplacer/Copier1[2]', #210 ) ;
#222 = AXIS2_PLACEMENT_3D ( 'NONE', #38, #207, #127 ) ;
#223 = PERSON_AND_ORGANIZATION ( #192, #1 ) ;
ENDSEC;
END-ISO-10303-21;
