ISO-10303-21;
HEADER;
FILE_DESCRIPTION (( 'STEP AP203' ),
    '1' );
FILE_NAME ('952661.step',
    '2021-10-08T05:16:18',
    ( '' ),
    ( '' ),
    'SwSTEP 2.0',
    'SolidWorks 2019',
    '' );
FILE_SCHEMA (( 'CONFIG_CONTROL_DESIGN' ));
ENDSEC;

DATA;
#1 = CARTESIAN_POINT ( 'NONE',  ( 3.491481338843133355E-15, -1.224646799147353207E-16, 1.000000000000000000 ) ) ;
#2 = AXIS2_PLACEMENT_3D ( 'NONE', #130, #192, #147 ) ;
#3 = VERTEX_POINT ( 'NONE', #178 ) ;
#4 = DIRECTION ( 'NONE',  ( -3.491481338843133355E-15, 1.224646799147353207E-16, -1.000000000000000000 ) ) ;
#5 = DIRECTION ( 'NONE',  ( 0.0000000000000000000, 1.000000000000000000, 0.0000000000000000000 ) ) ;
#6 = PERSON_AND_ORGANIZATION ( #210, #85 ) ;
#7 = AXIS2_PLACEMENT_3D ( 'NONE', #73, #58, #55 ) ;
#8 = CARTESIAN_POINT ( 'NONE',  ( 8.117268280178832179E-15, 0.4999999999999963363, 2.324878036686973903 ) ) ;
#9 = APPROVAL_STATUS ( 'not_yet_approved' ) ;
#10 = PRODUCT_DEFINITION_SHAPE ( 'NONE', 'NONE',  #116 ) ;
#11 = ADVANCED_FACE ( 'NONE', ( #186, #33 ), #158, .T. ) ;
#12 = DATE_AND_TIME ( #216, #185 ) ;
#13 = SECURITY_CLASSIFICATION ( '', '', #153 ) ;
#14 = ORIENTED_EDGE ( 'NONE', *, *, #46, .T. ) ;
#15 = ADVANCED_FACE ( 'NONE', ( #78, #40 ), #112, .T. ) ;
#16 = EDGE_LOOP ( 'NONE', ( #156 ) ) ;
#17 = DIRECTION ( 'NONE',  ( -3.491481338843133355E-15, 1.224646799147353207E-16, -1.000000000000000000 ) ) ;
#18 = CARTESIAN_POINT ( 'NONE',  ( 8.117268280178832179E-15, -2.847154446036685420E-16, 2.324878036686973903 ) ) ;
#19 = DIRECTION ( 'NONE',  ( -4.275831445896958607E-31, -1.000000000000000000, -1.224646799147353207E-16 ) ) ;
#20 = AXIS2_PLACEMENT_3D ( 'NONE', #93, #17, #115 ) ;
#21 = FACE_OUTER_BOUND ( 'NONE', #204, .T. ) ;
#22 = CARTESIAN_POINT ( 'NONE',  ( 1.043952920314096936E-13, -3.661693929450586610E-15, 29.90000000000000213 ) ) ;
#23 = APPLICATION_CONTEXT ( 'configuration controlled 3d designs of mechanical parts and assemblies' ) ;
#24 = EDGE_CURVE ( 'NONE', #57, #57, #193, .T. ) ;
#25 = CARTESIAN_POINT ( 'NONE',  ( 3.491481338843133355E-15, 0.1449999999999998790, 1.000000000000000000 ) ) ;
#26 = VERTEX_POINT ( 'NONE', #25 ) ;
#27 = LOCAL_TIME ( 7, 16, 18.00000000000000000, #195 ) ;
#28 = DATE_AND_TIME ( #29, #27 ) ;
#29 = CALENDAR_DATE ( 2021, 8, 10 ) ;
#30 = CC_DESIGN_PERSON_AND_ORGANIZATION_ASSIGNMENT ( #215, #120, ( #116 ) ) ;
#31 = DATE_TIME_ROLE ( 'creation_date' ) ;
#32 = CC_DESIGN_DATE_AND_TIME_ASSIGNMENT ( #181, #31, ( #116 ) ) ;
#33 = FACE_OUTER_BOUND ( 'NONE', #106, .T. ) ;
#34 = EDGE_LOOP ( 'NONE', ( #141 ) ) ;
#35 = CC_DESIGN_APPROVAL ( #67, ( #13 ) ) ;
#36 =( GEOMETRIC_REPRESENTATION_CONTEXT ( 3 ) GLOBAL_UNCERTAINTY_ASSIGNED_CONTEXT ( ( #166 ) ) GLOBAL_UNIT_ASSIGNED_CONTEXT ( ( #44, #47, #100 ) ) REPRESENTATION_CONTEXT ( 'NONE', 'WORKASPACE' ) );
#37 = EDGE_LOOP ( 'NONE', ( #222 ) ) ;
#38 = APPROVAL_PERSON_ORGANIZATION ( #151, #138, #170 ) ;
#39 = DIRECTION ( 'NONE',  ( 0.0000000000000000000, 1.000000000000000000, 0.0000000000000000000 ) ) ;
#40 = FACE_OUTER_BOUND ( 'NONE', #91, .T. ) ;
#41 = FACE_OUTER_BOUND ( 'NONE', #34, .T. ) ;
#42 = PLANE ( 'NONE',  #20 ) ;
#43 = APPROVAL_ROLE ( '' ) ;
#44 =( LENGTH_UNIT ( ) NAMED_UNIT ( * ) SI_UNIT ( .MILLI., .METRE. ) );
#45 = APPROVAL_PERSON_ORGANIZATION ( #61, #67, #43 ) ;
#46 = EDGE_CURVE ( 'NONE', #3, #3, #81, .T. ) ;
#47 =( NAMED_UNIT ( * ) PLANE_ANGLE_UNIT ( ) SI_UNIT ( $, .RADIAN. ) );
#48 = AXIS2_PLACEMENT_3D ( 'NONE', #160, #207, #114 ) ;
#49 = CC_DESIGN_PERSON_AND_ORGANIZATION_ASSIGNMENT ( #135, #211, ( #13 ) ) ;
#50 = ADVANCED_BREP_SHAPE_REPRESENTATION ( '952661', ( #214, #146, #60 ), #36 ) ;
#51 = ORIENTED_EDGE ( 'NONE', *, *, #87, .F. ) ;
#52 = DIRECTION ( 'NONE',  ( 4.275831445896958607E-31, 1.000000000000000000, 1.224646799147353207E-16 ) ) ;
#53 = APPROVAL ( #101, 'UNSPECIFIED' ) ;
#54 = VERTEX_POINT ( 'NONE', #8 ) ;
#55 = DIRECTION ( 'NONE',  ( 3.320568869633167952E-31, 1.000000000000000000, 9.346570452461252686E-17 ) ) ;
#56 = AXIS2_PLACEMENT_3D ( 'NONE', #220, #139, #52 ) ;
#57 = VERTEX_POINT ( 'NONE', #163 ) ;
#58 = DIRECTION ( 'NONE',  ( -3.491481338843133355E-15, 1.224646799147353207E-16, -1.000000000000000000 ) ) ;
#59 = CARTESIAN_POINT ( 'NONE',  ( 3.041945775941698100E-16, -1.066970949047419364E-17, 0.08712478975899713707 ) ) ;
#60 = AXIS2_PLACEMENT_3D ( 'NONE', #118, #66, #102 ) ;
#61 = PERSON_AND_ORGANIZATION ( #210, #85 ) ;
#62 = COORDINATED_UNIVERSAL_TIME_OFFSET ( 1, 0, .AHEAD. ) ;
#63 = CC_DESIGN_PERSON_AND_ORGANIZATION_ASSIGNMENT ( #6, #217, ( #104 ) ) ;
#64 = AXIS2_PLACEMENT_3D ( 'NONE', #18, #144, #5 ) ;
#65 = MECHANICAL_CONTEXT ( 'NONE', #74, 'mechanical' ) ;
#66 = DIRECTION ( 'NONE',  ( 0.0000000000000000000, 0.0000000000000000000, 1.000000000000000000 ) ) ;
#67 = APPROVAL ( #132, 'UNSPECIFIED' ) ;
#68 = ORIENTED_EDGE ( 'NONE', *, *, #113, .T. ) ;
#69 = EDGE_LOOP ( 'NONE', ( #142 ) ) ;
#70 = EDGE_CURVE ( 'NONE', #180, #180, #121, .T. ) ;
#71 = CIRCLE ( 'NONE', #197, 0.3999999999999989675 ) ;
#72 = EDGE_CURVE ( 'NONE', #97, #97, #71, .T. ) ;
#73 = CARTESIAN_POINT ( 'NONE',  ( 3.041945775941698100E-16, -1.066970949047419364E-17, 0.08712478975899713707 ) ) ;
#74 = APPLICATION_CONTEXT ( 'configuration controlled 3d designs of mechanical parts and assemblies' ) ;
#75 = DIRECTION ( 'NONE',  ( 0.0000000000000000000, 1.000000000000000000, 0.0000000000000000000 ) ) ;
#76 = AXIS2_PLACEMENT_3D ( 'NONE', #1, #167, #75 ) ;
#77 = DIRECTION ( 'NONE',  ( 3.491481338843133355E-15, -1.224646799147353207E-16, 1.000000000000000000 ) ) ;
#78 = FACE_OUTER_BOUND ( 'NONE', #122, .T. ) ;
#79 = DESIGN_CONTEXT ( 'detailed design', #23, 'design' ) ;
#80 = CARTESIAN_POINT ( 'NONE',  ( 3.041945775941698593E-16, 0.1449999999999998790, 0.08712478975899715095 ) ) ;
#81 = CIRCLE ( 'NONE', #110, 0.4999999999999991673 ) ;
#82 = COORDINATED_UNIVERSAL_TIME_OFFSET ( 1, 0, .AHEAD. ) ;
#83 = CC_DESIGN_DATE_AND_TIME_ASSIGNMENT ( #136, #182, ( #13 ) ) ;
#84 = PERSON_AND_ORGANIZATION_ROLE ( 'design_supplier' ) ;
#85 = ORGANIZATION ( 'UNSPECIFIED', 'UNSPECIFIED', '' ) ;
#86 = APPLICATION_PROTOCOL_DEFINITION ( 'international standard', 'config_control_design', 1994, #74 ) ;
#87 = EDGE_CURVE ( 'NONE', #54, #54, #107, .T. ) ;
#88 = PERSON_AND_ORGANIZATION_ROLE ( 'creator' ) ;
#89 = ORIENTED_EDGE ( 'NONE', *, *, #70, .T. ) ;
#90 = ADVANCED_FACE ( 'NONE', ( #165 ), #190, .T. ) ;
#91 = EDGE_LOOP ( 'NONE', ( #14 ) ) ;
#92 = CC_DESIGN_APPROVAL ( #53, ( #96 ) ) ;
#93 = CARTESIAN_POINT ( 'NONE',  ( 1.047444401652940007E-13, 2.999519565323652267E-33, 30.00000000000000000 ) ) ;
#94 = DIRECTION ( 'NONE',  ( 3.491481338843133355E-15, -1.224646799147353207E-16, 1.000000000000000000 ) ) ;
#95 = FACE_BOUND ( 'NONE', #108, .T. ) ;
#96 = PRODUCT_DEFINITION_FORMATION_WITH_SPECIFIED_SOURCE ( 'ANY', '', #104, .NOT_KNOWN. ) ;
#97 = VERTEX_POINT ( 'NONE', #149 ) ;
#98 = ADVANCED_FACE ( 'NONE', ( #131 ), #124, .T. ) ;
#99 = DIRECTION ( 'NONE',  ( 0.0000000000000000000, -1.000000000000000000, 0.0000000000000000000 ) ) ;
#100 =( NAMED_UNIT ( * ) SI_UNIT ( $, .STERADIAN. ) SOLID_ANGLE_UNIT ( ) );
#101 = APPROVAL_STATUS ( 'not_yet_approved' ) ;
#102 = DIRECTION ( 'NONE',  ( 1.000000000000000000, 0.0000000000000000000, 0.0000000000000000000 ) ) ;
#103 = PERSON_AND_ORGANIZATION ( #210, #85 ) ;
#104 = PRODUCT ( '952661', '952661', '', ( #65 ) ) ;
#105 = ORIENTED_EDGE ( 'NONE', *, *, #113, .F. ) ;
#106 = EDGE_LOOP ( 'NONE', ( #125 ) ) ;
#107 = CIRCLE ( 'NONE', #64, 0.4999999999999966693 ) ;
#108 = EDGE_LOOP ( 'NONE', ( #105 ) ) ;
#109 = CARTESIAN_POINT ( 'NONE',  ( 3.491481338843133355E-15, -1.224646799147353207E-16, 1.000000000000000000 ) ) ;
#110 = AXIS2_PLACEMENT_3D ( 'NONE', #22, #143, #205 ) ;
#111 = DIRECTION ( 'NONE',  ( -3.491481338843133355E-15, 1.224646799147353207E-16, -1.000000000000000000 ) ) ;
#112 = CYLINDRICAL_SURFACE ( 'NONE', #212, 0.4999999999999978351 ) ;
#113 = EDGE_CURVE ( 'NONE', #26, #26, #179, .T. ) ;
#114 = DIRECTION ( 'NONE',  ( 0.0000000000000000000, 1.000000000000000000, 0.0000000000000000000 ) ) ;
#115 = DIRECTION ( 'NONE',  ( 4.275831445896958607E-31, 1.000000000000000000, 1.224646799147353207E-16 ) ) ;
#116 = PRODUCT_DEFINITION ( 'UNKNOWN', '', #96, #79 ) ;
#117 = APPROVAL_PERSON_ORGANIZATION ( #103, #53, #133 ) ;
#118 = CARTESIAN_POINT ( 'NONE',  ( 0.0000000000000000000, 0.0000000000000000000, 0.0000000000000000000 ) ) ;
#119 = CALENDAR_DATE ( 2021, 8, 10 ) ;
#120 = PERSON_AND_ORGANIZATION_ROLE ( 'creator' ) ;
#121 = CIRCLE ( 'NONE', #7, 0.1449999999999998790 ) ;
#122 = EDGE_LOOP ( 'NONE', ( #51 ) ) ;
#123 = APPROVAL_DATE_TIME ( #154, #67 ) ;
#124 = CONICAL_SURFACE ( 'NONE', #150, 0.1449999999999998790, 1.029744258676649649 ) ;
#125 = ORIENTED_EDGE ( 'NONE', *, *, #24, .T. ) ;
#126 = DIRECTION ( 'NONE',  ( -3.491481338843133355E-15, 1.224646799147353207E-16, -1.000000000000000000 ) ) ;
#127 = DIRECTION ( 'NONE',  ( 0.0000000000000000000, 1.000000000000000000, 0.0000000000000000000 ) ) ;
#128 = AXIS2_PLACEMENT_3D ( 'NONE', #109, #4, #39 ) ;
#129 = CARTESIAN_POINT ( 'NONE',  ( 3.491481338843134933E-15, 5.981805089575204086E-15, 1.000000000000000444 ) ) ;
#130 = CARTESIAN_POINT ( 'NONE',  ( 3.491481338843134933E-15, 5.981805089575204086E-15, 1.000000000000000444 ) ) ;
#131 = FACE_OUTER_BOUND ( 'NONE', #200, .T. ) ;
#132 = APPROVAL_STATUS ( 'not_yet_approved' ) ;
#133 = APPROVAL_ROLE ( '' ) ;
#134 = AXIS2_PLACEMENT_3D ( 'NONE', #177, #94, #99 ) ;
#135 = PERSON_AND_ORGANIZATION ( #210, #85 ) ;
#136 = DATE_AND_TIME ( #119, #145 ) ;
#137 = EDGE_LOOP ( 'NONE', ( #68 ) ) ;
#138 = APPROVAL ( #9, 'UNSPECIFIED' ) ;
#139 = DIRECTION ( 'NONE',  ( -3.491481338843133355E-15, 1.224646799147353207E-16, -1.000000000000000000 ) ) ;
#140 = ORIENTED_EDGE ( 'NONE', *, *, #87, .T. ) ;
#141 = ORIENTED_EDGE ( 'NONE', *, *, #46, .F. ) ;
#142 = ORIENTED_EDGE ( 'NONE', *, *, #70, .F. ) ;
#143 = DIRECTION ( 'NONE',  ( -3.491481338843133355E-15, 1.224646799147353207E-16, -1.000000000000000000 ) ) ;
#144 = DIRECTION ( 'NONE',  ( -3.491481338843133355E-15, 1.224646799147353207E-16, -1.000000000000000000 ) ) ;
#145 = LOCAL_TIME ( 7, 16, 18.00000000000000000, #198 ) ;
#146 = MANIFOLD_SOLID_BREP ( 'Corps-Déplacer/Copier1[2]', #202 ) ;
#147 = DIRECTION ( 'NONE',  ( -4.275831445896958607E-31, -1.000000000000000000, -1.224646799147353207E-16 ) ) ;
#148 = DIRECTION ( 'NONE',  ( 4.275831445896958607E-31, 1.000000000000000000, 1.224646799147353207E-16 ) ) ;
#149 = CARTESIAN_POINT ( 'NONE',  ( 1.047444401652940007E-13, 0.3999999999999953038, 30.00000000000000000 ) ) ;
#150 = AXIS2_PLACEMENT_3D ( 'NONE', #59, #189, #191 ) ;
#151 = PERSON_AND_ORGANIZATION ( #210, #85 ) ;
#152 = APPROVAL_DATE_TIME ( #28, #138 ) ;
#153 = SECURITY_CLASSIFICATION_LEVEL ( 'unclassified' ) ;
#154 = DATE_AND_TIME ( #175, #164 ) ;
#155 = PRODUCT_RELATED_PRODUCT_CATEGORY ( 'detail', '', ( #104 ) ) ;
#156 = ORIENTED_EDGE ( 'NONE', *, *, #24, .F. ) ;
#157 = CLOSED_SHELL ( 'NONE', ( #172, #184, #15, #199, #173 ) ) ;
#158 = CYLINDRICAL_SURFACE ( 'NONE', #56, 0.1449999999999999345 ) ;
#159 = AXIS2_PLACEMENT_3D ( 'NONE', #129, #77, #19 ) ;
#160 = CARTESIAN_POINT ( 'NONE',  ( 1.047444401652940007E-13, -3.673940397442059178E-15, 30.00000000000000000 ) ) ;
#161 = CC_DESIGN_PERSON_AND_ORGANIZATION_ASSIGNMENT ( #196, #88, ( #96 ) ) ;
#162 = FACE_BOUND ( 'NONE', #37, .T. ) ;
#163 = CARTESIAN_POINT ( 'NONE',  ( 3.491481338843133355E-15, 0.1449999999999998790, 1.000000000000000000 ) ) ;
#164 = LOCAL_TIME ( 7, 16, 18.00000000000000000, #219 ) ;
#165 = FACE_OUTER_BOUND ( 'NONE', #16, .T. ) ;
#166 = UNCERTAINTY_MEASURE_WITH_UNIT (LENGTH_MEASURE( 1.000000000000000082E-05 ), #44, 'distance_accuracy_value', 'NONE');
#167 = DIRECTION ( 'NONE',  ( -3.491481338843133355E-15, 1.224646799147353207E-16, -1.000000000000000000 ) ) ;
#168 = CALENDAR_DATE ( 2021, 8, 10 ) ;
#169 = CONICAL_SURFACE ( 'NONE', #134, 0.4999999999999966693, 0.2617993877991428020 ) ;
#170 = APPROVAL_ROLE ( '' ) ;
#171 = PERSON_AND_ORGANIZATION ( #210, #85 ) ;
#172 = ADVANCED_FACE ( 'NONE', ( #223 ), #176, .F. ) ;
#173 = ADVANCED_FACE ( 'NONE', ( #208 ), #42, .F. ) ;
#174 = ORIENTED_EDGE ( 'NONE', *, *, #72, .F. ) ;
#175 = CALENDAR_DATE ( 2021, 8, 10 ) ;
#176 = PLANE ( 'NONE',  #2 ) ;
#177 = CARTESIAN_POINT ( 'NONE',  ( 8.117268280178832179E-15, -2.847154446036685420E-16, 2.324878036686973903 ) ) ;
#178 = CARTESIAN_POINT ( 'NONE',  ( 1.043952920314096936E-13, 0.4999999999999954481, 29.90000000000000213 ) ) ;
#179 = CIRCLE ( 'NONE', #128, 0.1450000000000000178 ) ;
#180 = VERTEX_POINT ( 'NONE', #80 ) ;
#181 = DATE_AND_TIME ( #168, #187 ) ;
#182 = DATE_TIME_ROLE ( 'classification_date' ) ;
#183 = APPROVAL_DATE_TIME ( #12, #53 ) ;
#184 = ADVANCED_FACE ( 'NONE', ( #95, #21 ), #169, .T. ) ;
#185 = LOCAL_TIME ( 7, 16, 18.00000000000000000, #82 ) ;
#186 = FACE_OUTER_BOUND ( 'NONE', #69, .T. ) ;
#187 = LOCAL_TIME ( 7, 16, 18.00000000000000000, #62 ) ;
#188 = CARTESIAN_POINT ( 'NONE',  ( 0.0000000000000000000, 0.0000000000000000000, 0.0000000000000000000 ) ) ;
#189 = DIRECTION ( 'NONE',  ( 3.491481338843133355E-15, -1.224646799147353207E-16, 1.000000000000000000 ) ) ;
#190 = PLANE ( 'NONE',  #159 ) ;
#191 = DIRECTION ( 'NONE',  ( -3.320568869633167952E-31, -1.000000000000000000, -9.346570452461252686E-17 ) ) ;
#192 = DIRECTION ( 'NONE',  ( 3.491481338843133355E-15, -1.224646799147353207E-16, 1.000000000000000000 ) ) ;
#193 = CIRCLE ( 'NONE', #76, 0.1450000000000000178 ) ;
#194 = CC_DESIGN_SECURITY_CLASSIFICATION ( #13, ( #96 ) ) ;
#195 = COORDINATED_UNIVERSAL_TIME_OFFSET ( 1, 0, .AHEAD. ) ;
#196 = PERSON_AND_ORGANIZATION ( #210, #85 ) ;
#197 = AXIS2_PLACEMENT_3D ( 'NONE', #209, #126, #127 ) ;
#198 = COORDINATED_UNIVERSAL_TIME_OFFSET ( 1, 0, .AHEAD. ) ;
#199 = ADVANCED_FACE ( 'NONE', ( #41, #162 ), #218, .T. ) ;
#200 = EDGE_LOOP ( 'NONE', ( #89 ) ) ;
#201 = EDGE_LOOP ( 'NONE', ( #174 ) ) ;
#202 = CLOSED_SHELL ( 'NONE', ( #98, #11, #90 ) ) ;
#203 = CC_DESIGN_PERSON_AND_ORGANIZATION_ASSIGNMENT ( #171, #84, ( #96 ) ) ;
#204 = EDGE_LOOP ( 'NONE', ( #140 ) ) ;
#205 = DIRECTION ( 'NONE',  ( 0.0000000000000000000, 1.000000000000000000, 0.0000000000000000000 ) ) ;
#206 = CC_DESIGN_APPROVAL ( #138, ( #116 ) ) ;
#207 = DIRECTION ( 'NONE',  ( -3.491481338843133355E-15, 1.224646799147353207E-16, -1.000000000000000000 ) ) ;
#208 = FACE_OUTER_BOUND ( 'NONE', #201, .T. ) ;
#209 = CARTESIAN_POINT ( 'NONE',  ( 1.047444401652940007E-13, -3.673940397442059178E-15, 30.00000000000000000 ) ) ;
#210 = PERSON ( 'UNSPECIFIED', 'UNSPECIFIED', 'UNSPECIFIED', ('UNSPECIFIED'), ('UNSPECIFIED'), ('UNSPECIFIED') ) ;
#211 = PERSON_AND_ORGANIZATION_ROLE ( 'classification_officer' ) ;
#212 = AXIS2_PLACEMENT_3D ( 'NONE', #188, #111, #148 ) ;
#213 = APPLICATION_PROTOCOL_DEFINITION ( 'international standard', 'config_control_design', 1994, #23 ) ;
#214 = MANIFOLD_SOLID_BREP ( 'Corps-Déplacer/Copier1[1]', #157 ) ;
#215 = PERSON_AND_ORGANIZATION ( #210, #85 ) ;
#216 = CALENDAR_DATE ( 2021, 8, 10 ) ;
#217 = PERSON_AND_ORGANIZATION_ROLE ( 'design_owner' ) ;
#218 = CONICAL_SURFACE ( 'NONE', #48, 0.3999999999999989675, 0.7853981633974694843 ) ;
#219 = COORDINATED_UNIVERSAL_TIME_OFFSET ( 1, 0, .AHEAD. ) ;
#220 = CARTESIAN_POINT ( 'NONE',  ( 0.0000000000000000000, 0.0000000000000000000, 0.0000000000000000000 ) ) ;
#221 = SHAPE_DEFINITION_REPRESENTATION ( #10, #50 ) ;
#222 = ORIENTED_EDGE ( 'NONE', *, *, #72, .T. ) ;
#223 = FACE_OUTER_BOUND ( 'NONE', #137, .T. ) ;
ENDSEC;
END-ISO-10303-21;
