ISO-10303-21;
HEADER;
FILE_DESCRIPTION (( 'STEP AP203' ),
    '1' );
FILE_NAME ('952660.step',
    '2021-10-08T05:16:17',
    ( '' ),
    ( '' ),
    'SwSTEP 2.0',
    'SolidWorks 2019',
    '' );
FILE_SCHEMA (( 'CONFIG_CONTROL_DESIGN' ));
ENDSEC;

DATA;
#1 = EDGE_LOOP ( 'NONE', ( #206 ) ) ;
#2 = CC_DESIGN_PERSON_AND_ORGANIZATION_ASSIGNMENT ( #135, #174, ( #73 ) ) ;
#3 = CALENDAR_DATE ( 2021, 8, 10 ) ;
#4 = PERSON_AND_ORGANIZATION ( #54, #96 ) ;
#5 = AXIS2_PLACEMENT_3D ( 'NONE', #100, #53, #167 ) ;
#6 = DIRECTION ( 'NONE',  ( -3.491481338843133355E-15, 1.224646799147353207E-16, -1.000000000000000000 ) ) ;
#7 = FACE_OUTER_BOUND ( 'NONE', #70, .T. ) ;
#8 = DIRECTION ( 'NONE',  ( 0.0000000000000000000, 1.000000000000000000, 0.0000000000000000000 ) ) ;
#9 = AXIS2_PLACEMENT_3D ( 'NONE', #184, #131, #66 ) ;
#10 = LOCAL_TIME ( 7, 16, 17.00000000000000000, #176 ) ;
#11 = DIRECTION ( 'NONE',  ( -3.491481338843133355E-15, 1.224646799147353207E-16, -1.000000000000000000 ) ) ;
#12 = FACE_OUTER_BOUND ( 'NONE', #42, .T. ) ;
#13 = APPLICATION_PROTOCOL_DEFINITION ( 'international standard', 'config_control_design', 1994, #122 ) ;
#14 = AXIS2_PLACEMENT_3D ( 'NONE', #74, #213, #113 ) ;
#15 = CC_DESIGN_PERSON_AND_ORGANIZATION_ASSIGNMENT ( #173, #207, ( #73 ) ) ;
#16 = DIRECTION ( 'NONE',  ( 4.275831445896958607E-31, 1.000000000000000000, 1.224646799147353207E-16 ) ) ;
#17 = APPROVAL_STATUS ( 'not_yet_approved' ) ;
#18 = DATE_TIME_ROLE ( 'creation_date' ) ;
#19 = APPROVAL ( #188, 'UNSPECIFIED' ) ;
#20 = LOCAL_TIME ( 7, 16, 17.00000000000000000, #217 ) ;
#21 = CALENDAR_DATE ( 2021, 8, 10 ) ;
#22 = PRODUCT_DEFINITION_SHAPE ( 'NONE', 'NONE',  #169 ) ;
#23 = ORIENTED_EDGE ( 'NONE', *, *, #201, .F. ) ;
#24 = AXIS2_PLACEMENT_3D ( 'NONE', #209, #180, #163 ) ;
#25 = APPROVAL_ROLE ( '' ) ;
#26 = EDGE_CURVE ( 'NONE', #37, #37, #117, .T. ) ;
#27 = EDGE_LOOP ( 'NONE', ( #211 ) ) ;
#28 = UNCERTAINTY_MEASURE_WITH_UNIT (LENGTH_MEASURE( 1.000000000000000082E-05 ), #115, 'distance_accuracy_value', 'NONE');
#29 = CARTESIAN_POINT ( 'NONE',  ( 1.047444401652940007E-13, -3.673940397442059178E-15, 30.00000000000000000 ) ) ;
#30 = FACE_OUTER_BOUND ( 'NONE', #86, .T. ) ;
#31 = ADVANCED_BREP_SHAPE_REPRESENTATION ( '952660', ( #159, #87, #125 ), #172 ) ;
#32 = CONICAL_SURFACE ( 'NONE', #104, 0.3999999999999989675, 0.7853981633974694843 ) ;
#33 = DIRECTION ( 'NONE',  ( -3.491481338843133355E-15, 1.224646799147353207E-16, -1.000000000000000000 ) ) ;
#34 = ADVANCED_FACE ( 'NONE', ( #179, #61 ), #129, .T. ) ;
#35 = CARTESIAN_POINT ( 'NONE',  ( 3.491481338843133355E-15, 0.1399999999999998745, 1.000000000000000000 ) ) ;
#36 = ADVANCED_FACE ( 'NONE', ( #128, #126 ), #32, .T. ) ;
#37 = VERTEX_POINT ( 'NONE', #35 ) ;
#38 = DATE_AND_TIME ( #186, #20 ) ;
#39 = PRODUCT ( '952660', '952660', '', ( #200 ) ) ;
#40 = DATE_TIME_ROLE ( 'classification_date' ) ;
#41 = CC_DESIGN_DATE_AND_TIME_ASSIGNMENT ( #58, #40, ( #91 ) ) ;
#42 = EDGE_LOOP ( 'NONE', ( #107 ) ) ;
#43 = CYLINDRICAL_SURFACE ( 'NONE', #190, 0.4999999999999978351 ) ;
#44 = AXIS2_PLACEMENT_3D ( 'NONE', #181, #33, #99 ) ;
#45 = DIRECTION ( 'NONE',  ( -3.491481338843133355E-15, 1.224646799147353207E-16, -1.000000000000000000 ) ) ;
#46 = ADVANCED_FACE ( 'NONE', ( #30 ), #49, .T. ) ;
#47 = EDGE_LOOP ( 'NONE', ( #127 ) ) ;
#48 = DIRECTION ( 'NONE',  ( 3.491481338843133355E-15, -1.224646799147353207E-16, 1.000000000000000000 ) ) ;
#49 = CONICAL_SURFACE ( 'NONE', #24, 0.1399999999999998745, 1.029744258676649649 ) ;
#50 = DIRECTION ( 'NONE',  ( 4.275831445896958607E-31, 1.000000000000000000, 1.224646799147353207E-16 ) ) ;
#51 = PRODUCT_RELATED_PRODUCT_CATEGORY ( 'detail', '', ( #39 ) ) ;
#52 = CARTESIAN_POINT ( 'NONE',  ( 0.0000000000000000000, 0.0000000000000000000, 0.0000000000000000000 ) ) ;
#53 = DIRECTION ( 'NONE',  ( -3.491481338843133355E-15, 1.224646799147353207E-16, -1.000000000000000000 ) ) ;
#54 = PERSON ( 'UNSPECIFIED', 'UNSPECIFIED', 'UNSPECIFIED', ('UNSPECIFIED'), ('UNSPECIFIED'), ('UNSPECIFIED') ) ;
#55 = CARTESIAN_POINT ( 'NONE',  ( 3.491481338843133355E-15, 0.1399999999999998745, 1.000000000000000000 ) ) ;
#56 = CC_DESIGN_SECURITY_CLASSIFICATION ( #91, ( #73 ) ) ;
#57 = APPROVAL ( #17, 'UNSPECIFIED' ) ;
#58 = DATE_AND_TIME ( #21, #221 ) ;
#59 = PERSON_AND_ORGANIZATION ( #54, #96 ) ;
#60 = CLOSED_SHELL ( 'NONE', ( #112, #34, #156, #36, #141 ) ) ;
#61 = FACE_OUTER_BOUND ( 'NONE', #47, .T. ) ;
#62 = CARTESIAN_POINT ( 'NONE',  ( 3.491481338843133355E-15, -1.224646799147353207E-16, 1.000000000000000000 ) ) ;
#63 = DIRECTION ( 'NONE',  ( -4.275831445896958607E-31, -1.000000000000000000, -1.224646799147353207E-16 ) ) ;
#64 = DIRECTION ( 'NONE',  ( 0.0000000000000000000, -1.000000000000000000, 0.0000000000000000000 ) ) ;
#65 =( NAMED_UNIT ( * ) PLANE_ANGLE_UNIT ( ) SI_UNIT ( $, .RADIAN. ) );
#66 = DIRECTION ( 'NONE',  ( 0.0000000000000000000, 1.000000000000000000, 0.0000000000000000000 ) ) ;
#67 = CARTESIAN_POINT ( 'NONE',  ( 1.047444401652940007E-13, 0.3999999999999953038, 30.00000000000000000 ) ) ;
#68 = CARTESIAN_POINT ( 'NONE',  ( 2.937051094012674775E-16, 0.1399999999999998745, 0.08412048666385932294 ) ) ;
#69 = PERSON_AND_ORGANIZATION ( #54, #96 ) ;
#70 = EDGE_LOOP ( 'NONE', ( #23 ) ) ;
#71 = CALENDAR_DATE ( 2021, 8, 10 ) ;
#72 = EDGE_LOOP ( 'NONE', ( #223 ) ) ;
#73 = PRODUCT_DEFINITION_FORMATION_WITH_SPECIFIED_SOURCE ( 'ANY', '', #39, .NOT_KNOWN. ) ;
#74 = CARTESIAN_POINT ( 'NONE',  ( 3.491481338843134933E-15, 6.195440985631459656E-15, 1.000000000000000444 ) ) ;
#75 = PLANE ( 'NONE',  #44 ) ;
#76 = PLANE ( 'NONE',  #14 ) ;
#77 = CIRCLE ( 'NONE', #145, 0.1400000000000000133 ) ;
#78 = FACE_OUTER_BOUND ( 'NONE', #1, .T. ) ;
#79 = CYLINDRICAL_SURFACE ( 'NONE', #133, 0.1399999999999999301 ) ;
#80 = DIRECTION ( 'NONE',  ( -3.491481338843133355E-15, 1.224646799147353207E-16, -1.000000000000000000 ) ) ;
#81 = APPROVAL_DATE_TIME ( #154, #57 ) ;
#82 = PERSON_AND_ORGANIZATION ( #54, #96 ) ;
#83 = APPROVAL_ROLE ( '' ) ;
#84 = VERTEX_POINT ( 'NONE', #55 ) ;
#85 = PERSON_AND_ORGANIZATION_ROLE ( 'classification_officer' ) ;
#86 = EDGE_LOOP ( 'NONE', ( #193 ) ) ;
#87 = MANIFOLD_SOLID_BREP ( 'Corps-Déplacer/Copier1[2]', #212 ) ;
#88 = APPLICATION_CONTEXT ( 'configuration controlled 3d designs of mechanical parts and assemblies' ) ;
#89 = DIRECTION ( 'NONE',  ( 0.0000000000000000000, 1.000000000000000000, 0.0000000000000000000 ) ) ;
#90 = CIRCLE ( 'NONE', #9, 0.4999999999999991673 ) ;
#91 = SECURITY_CLASSIFICATION ( '', '', #140 ) ;
#92 = FACE_OUTER_BOUND ( 'NONE', #124, .T. ) ;
#93 = CC_DESIGN_PERSON_AND_ORGANIZATION_ASSIGNMENT ( #59, #85, ( #91 ) ) ;
#94 = EDGE_LOOP ( 'NONE', ( #137 ) ) ;
#95 = EDGE_LOOP ( 'NONE', ( #108 ) ) ;
#96 = ORGANIZATION ( 'UNSPECIFIED', 'UNSPECIFIED', '' ) ;
#97 = LOCAL_TIME ( 7, 16, 17.00000000000000000, #139 ) ;
#98 = EDGE_CURVE ( 'NONE', #84, #84, #77, .T. ) ;
#99 = DIRECTION ( 'NONE',  ( 4.275831445896958607E-31, 1.000000000000000000, 1.224646799147353207E-16 ) ) ;
#100 = CARTESIAN_POINT ( 'NONE',  ( 1.047444401652940007E-13, -3.673940397442059178E-15, 30.00000000000000000 ) ) ;
#101 = CIRCLE ( 'NONE', #208, 0.1399999999999998745 ) ;
#102 = DIRECTION ( 'NONE',  ( 0.0000000000000000000, 0.0000000000000000000, 1.000000000000000000 ) ) ;
#103 = APPROVAL_ROLE ( '' ) ;
#104 = AXIS2_PLACEMENT_3D ( 'NONE', #29, #111, #142 ) ;
#105 = AXIS2_PLACEMENT_3D ( 'NONE', #214, #48, #63 ) ;
#106 = EDGE_CURVE ( 'NONE', #185, #185, #182, .T. ) ;
#107 = ORIENTED_EDGE ( 'NONE', *, *, #98, .T. ) ;
#108 = ORIENTED_EDGE ( 'NONE', *, *, #201, .T. ) ;
#109 = CARTESIAN_POINT ( 'NONE',  ( 0.0000000000000000000, 0.0000000000000000000, 0.0000000000000000000 ) ) ;
#110 = ORIENTED_EDGE ( 'NONE', *, *, #189, .T. ) ;
#111 = DIRECTION ( 'NONE',  ( -3.491481338843133355E-15, 1.224646799147353207E-16, -1.000000000000000000 ) ) ;
#112 = ADVANCED_FACE ( 'NONE', ( #78 ), #146, .F. ) ;
#113 = DIRECTION ( 'NONE',  ( -4.275831445896958607E-31, -1.000000000000000000, -1.224646799147353207E-16 ) ) ;
#114 = APPROVAL_PERSON_ORGANIZATION ( #170, #57, #83 ) ;
#115 =( LENGTH_UNIT ( ) NAMED_UNIT ( * ) SI_UNIT ( .MILLI., .METRE. ) );
#116 = PERSON_AND_ORGANIZATION_ROLE ( 'design_owner' ) ;
#117 = CIRCLE ( 'NONE', #153, 0.1400000000000000133 ) ;
#118 = PERSON_AND_ORGANIZATION_ROLE ( 'creator' ) ;
#119 = APPROVAL_DATE_TIME ( #138, #222 ) ;
#120 = SHAPE_DEFINITION_REPRESENTATION ( #22, #31 ) ;
#121 = CC_DESIGN_APPROVAL ( #57, ( #169 ) ) ;
#122 = APPLICATION_CONTEXT ( 'configuration controlled 3d designs of mechanical parts and assemblies' ) ;
#123 = DIRECTION ( 'NONE',  ( -3.491481338843133355E-15, 1.224646799147353207E-16, -1.000000000000000000 ) ) ;
#124 = EDGE_LOOP ( 'NONE', ( #215 ) ) ;
#125 = AXIS2_PLACEMENT_3D ( 'NONE', #52, #102, #132 ) ;
#126 = FACE_BOUND ( 'NONE', #95, .T. ) ;
#127 = ORIENTED_EDGE ( 'NONE', *, *, #106, .T. ) ;
#128 = FACE_OUTER_BOUND ( 'NONE', #27, .T. ) ;
#129 = CONICAL_SURFACE ( 'NONE', #175, 0.4999999999999966693, 0.2617993877991428020 ) ;
#130 = ADVANCED_FACE ( 'NONE', ( #92 ), #76, .T. ) ;
#131 = DIRECTION ( 'NONE',  ( -3.491481338843133355E-15, 1.224646799147353207E-16, -1.000000000000000000 ) ) ;
#132 = DIRECTION ( 'NONE',  ( 1.000000000000000000, 0.0000000000000000000, 0.0000000000000000000 ) ) ;
#133 = AXIS2_PLACEMENT_3D ( 'NONE', #197, #123, #50 ) ;
#134 = CALENDAR_DATE ( 2021, 8, 10 ) ;
#135 = PERSON_AND_ORGANIZATION ( #54, #96 ) ;
#136 = CC_DESIGN_PERSON_AND_ORGANIZATION_ASSIGNMENT ( #82, #116, ( #39 ) ) ;
#137 = ORIENTED_EDGE ( 'NONE', *, *, #210, .F. ) ;
#138 = DATE_AND_TIME ( #3, #10 ) ;
#139 = COORDINATED_UNIVERSAL_TIME_OFFSET ( 1, 0, .AHEAD. ) ;
#140 = SECURITY_CLASSIFICATION_LEVEL ( 'unclassified' ) ;
#141 = ADVANCED_FACE ( 'NONE', ( #7 ), #75, .F. ) ;
#142 = DIRECTION ( 'NONE',  ( 0.0000000000000000000, 1.000000000000000000, 0.0000000000000000000 ) ) ;
#143 = FACE_OUTER_BOUND ( 'NONE', #194, .T. ) ;
#144 = EDGE_LOOP ( 'NONE', ( #110 ) ) ;
#145 = AXIS2_PLACEMENT_3D ( 'NONE', #147, #11, #8 ) ;
#146 = PLANE ( 'NONE',  #105 ) ;
#147 = CARTESIAN_POINT ( 'NONE',  ( 3.491481338843133355E-15, -1.224646799147353207E-16, 1.000000000000000000 ) ) ;
#148 = VERTEX_POINT ( 'NONE', #68 ) ;
#149 = APPROVAL_STATUS ( 'not_yet_approved' ) ;
#150 = CARTESIAN_POINT ( 'NONE',  ( 2.937051094012674282E-16, -1.030178847356129015E-17, 0.08412048666385930906 ) ) ;
#151 = ADVANCED_FACE ( 'NONE', ( #165, #12 ), #79, .T. ) ;
#152 = COORDINATED_UNIVERSAL_TIME_OFFSET ( 1, 0, .AHEAD. ) ;
#153 = AXIS2_PLACEMENT_3D ( 'NONE', #62, #45, #89 ) ;
#154 = DATE_AND_TIME ( #134, #220 ) ;
#155 = DATE_AND_TIME ( #71, #97 ) ;
#156 = ADVANCED_FACE ( 'NONE', ( #143, #191 ), #43, .T. ) ;
#157 = DESIGN_CONTEXT ( 'detailed design', #122, 'design' ) ;
#158 = COORDINATED_UNIVERSAL_TIME_OFFSET ( 1, 0, .AHEAD. ) ;
#159 = MANIFOLD_SOLID_BREP ( 'Corps-Déplacer/Copier1[1]', #60 ) ;
#160 = CARTESIAN_POINT ( 'NONE',  ( 8.182420208930038871E-15, -2.870006666415408628E-16, 2.343538290724819007 ) ) ;
#161 = DIRECTION ( 'NONE',  ( 0.0000000000000000000, 1.000000000000000000, 0.0000000000000000000 ) ) ;
#162 = CC_DESIGN_PERSON_AND_ORGANIZATION_ASSIGNMENT ( #219, #118, ( #169 ) ) ;
#163 = DIRECTION ( 'NONE',  ( -3.439160614977210071E-31, -1.000000000000000000, -9.680376540049155713E-17 ) ) ;
#164 = DIRECTION ( 'NONE',  ( 3.491481338843133355E-15, -1.224646799147353207E-16, 1.000000000000000000 ) ) ;
#165 = FACE_OUTER_BOUND ( 'NONE', #94, .T. ) ;
#166 = VERTEX_POINT ( 'NONE', #168 ) ;
#167 = DIRECTION ( 'NONE',  ( 0.0000000000000000000, 1.000000000000000000, 0.0000000000000000000 ) ) ;
#168 = CARTESIAN_POINT ( 'NONE',  ( 1.043952920314096936E-13, 0.4999999999999954481, 29.90000000000000213 ) ) ;
#169 = PRODUCT_DEFINITION ( 'UNKNOWN', '', #73, #157 ) ;
#170 = PERSON_AND_ORGANIZATION ( #54, #96 ) ;
#171 =( NAMED_UNIT ( * ) SI_UNIT ( $, .STERADIAN. ) SOLID_ANGLE_UNIT ( ) );
#172 =( GEOMETRIC_REPRESENTATION_CONTEXT ( 3 ) GLOBAL_UNCERTAINTY_ASSIGNED_CONTEXT ( ( #28 ) ) GLOBAL_UNIT_ASSIGNED_CONTEXT ( ( #115, #65, #171 ) ) REPRESENTATION_CONTEXT ( 'NONE', 'WORKASPACE' ) );
#173 = PERSON_AND_ORGANIZATION ( #54, #96 ) ;
#174 = PERSON_AND_ORGANIZATION_ROLE ( 'design_supplier' ) ;
#175 = AXIS2_PLACEMENT_3D ( 'NONE', #160, #164, #64 ) ;
#176 = COORDINATED_UNIVERSAL_TIME_OFFSET ( 1, 0, .AHEAD. ) ;
#177 = ORIENTED_EDGE ( 'NONE', *, *, #106, .F. ) ;
#178 = DIRECTION ( 'NONE',  ( -3.491481338843133355E-15, 1.224646799147353207E-16, -1.000000000000000000 ) ) ;
#179 = FACE_BOUND ( 'NONE', #72, .T. ) ;
#180 = DIRECTION ( 'NONE',  ( 3.491481338843133355E-15, -1.224646799147353207E-16, 1.000000000000000000 ) ) ;
#181 = CARTESIAN_POINT ( 'NONE',  ( 1.047444401652940007E-13, 2.999519565323652267E-33, 30.00000000000000000 ) ) ;
#182 = CIRCLE ( 'NONE', #202, 0.4999999999999966693 ) ;
#183 = CC_DESIGN_APPROVAL ( #222, ( #73 ) ) ;
#184 = CARTESIAN_POINT ( 'NONE',  ( 1.043952920314096936E-13, -3.661693929450586610E-15, 29.90000000000000213 ) ) ;
#185 = VERTEX_POINT ( 'NONE', #199 ) ;
#186 = CALENDAR_DATE ( 2021, 8, 10 ) ;
#187 = APPROVAL_DATE_TIME ( #155, #19 ) ;
#188 = APPROVAL_STATUS ( 'not_yet_approved' ) ;
#189 = EDGE_CURVE ( 'NONE', #166, #166, #90, .T. ) ;
#190 = AXIS2_PLACEMENT_3D ( 'NONE', #109, #178, #16 ) ;
#191 = FACE_OUTER_BOUND ( 'NONE', #144, .T. ) ;
#192 = CIRCLE ( 'NONE', #5, 0.3999999999999989675 ) ;
#193 = ORIENTED_EDGE ( 'NONE', *, *, #210, .T. ) ;
#194 = EDGE_LOOP ( 'NONE', ( #177 ) ) ;
#195 = CARTESIAN_POINT ( 'NONE',  ( 8.182420208930038871E-15, -2.870006666415408628E-16, 2.343538290724819007 ) ) ;
#196 = CC_DESIGN_DATE_AND_TIME_ASSIGNMENT ( #38, #18, ( #169 ) ) ;
#197 = CARTESIAN_POINT ( 'NONE',  ( 0.0000000000000000000, 0.0000000000000000000, 0.0000000000000000000 ) ) ;
#198 = APPROVAL_PERSON_ORGANIZATION ( #69, #222, #103 ) ;
#199 = CARTESIAN_POINT ( 'NONE',  ( 8.182420208930038871E-15, 0.4999999999999963363, 2.343538290724819007 ) ) ;
#200 = MECHANICAL_CONTEXT ( 'NONE', #88, 'mechanical' ) ;
#201 = EDGE_CURVE ( 'NONE', #216, #216, #192, .T. ) ;
#202 = AXIS2_PLACEMENT_3D ( 'NONE', #195, #6, #161 ) ;
#203 = CC_DESIGN_APPROVAL ( #19, ( #91 ) ) ;
#204 = APPLICATION_PROTOCOL_DEFINITION ( 'international standard', 'config_control_design', 1994, #88 ) ;
#205 = APPROVAL_PERSON_ORGANIZATION ( #4, #19, #25 ) ;
#206 = ORIENTED_EDGE ( 'NONE', *, *, #26, .T. ) ;
#207 = PERSON_AND_ORGANIZATION_ROLE ( 'creator' ) ;
#208 = AXIS2_PLACEMENT_3D ( 'NONE', #150, #80, #218 ) ;
#209 = CARTESIAN_POINT ( 'NONE',  ( 2.937051094012674282E-16, -1.030178847356129015E-17, 0.08412048666385930906 ) ) ;
#210 = EDGE_CURVE ( 'NONE', #148, #148, #101, .T. ) ;
#211 = ORIENTED_EDGE ( 'NONE', *, *, #189, .F. ) ;
#212 = CLOSED_SHELL ( 'NONE', ( #46, #151, #130 ) ) ;
#213 = DIRECTION ( 'NONE',  ( 3.491481338843133355E-15, -1.224646799147353207E-16, 1.000000000000000000 ) ) ;
#214 = CARTESIAN_POINT ( 'NONE',  ( 3.491481338843134933E-15, 6.195440985631459656E-15, 1.000000000000000444 ) ) ;
#215 = ORIENTED_EDGE ( 'NONE', *, *, #98, .F. ) ;
#216 = VERTEX_POINT ( 'NONE', #67 ) ;
#217 = COORDINATED_UNIVERSAL_TIME_OFFSET ( 1, 0, .AHEAD. ) ;
#218 = DIRECTION ( 'NONE',  ( 3.439160614977210071E-31, 1.000000000000000000, 9.680376540049155713E-17 ) ) ;
#219 = PERSON_AND_ORGANIZATION ( #54, #96 ) ;
#220 = LOCAL_TIME ( 7, 16, 17.00000000000000000, #152 ) ;
#221 = LOCAL_TIME ( 7, 16, 17.00000000000000000, #158 ) ;
#222 = APPROVAL ( #149, 'UNSPECIFIED' ) ;
#223 = ORIENTED_EDGE ( 'NONE', *, *, #26, .F. ) ;
ENDSEC;
END-ISO-10303-21;
