ISO-10303-21;
HEADER;
FILE_DESCRIPTION (( 'STEP AP203' ),
    '1' );
FILE_NAME ('952659.step',
    '2021-10-08T05:16:16',
    ( '' ),
    ( '' ),
    'SwSTEP 2.0',
    'SolidWorks 2019',
    '' );
FILE_SCHEMA (( 'CONFIG_CONTROL_DESIGN' ));
ENDSEC;

DATA;
#1 = CARTESIAN_POINT ( 'NONE',  ( 1.047444401652940007E-13, 0.3999999999999953038, 30.00000000000000000 ) ) ;
#2 = ORGANIZATION ( 'UNSPECIFIED', 'UNSPECIFIED', '' ) ;
#3 =( NAMED_UNIT ( * ) SI_UNIT ( $, .STERADIAN. ) SOLID_ANGLE_UNIT ( ) );
#4 = ADVANCED_FACE ( 'NONE', ( #108, #80 ), #94, .T. ) ;
#5 = FACE_OUTER_BOUND ( 'NONE', #199, .T. ) ;
#6 = APPLICATION_PROTOCOL_DEFINITION ( 'international standard', 'config_control_design', 1994, #17 ) ;
#7 = APPROVAL_STATUS ( 'not_yet_approved' ) ;
#8 = DATE_TIME_ROLE ( 'creation_date' ) ;
#9 = APPROVAL_ROLE ( '' ) ;
#10 = LOCAL_TIME ( 7, 16, 16.00000000000000000, #102 ) ;
#11 = APPROVAL_STATUS ( 'not_yet_approved' ) ;
#12 = PERSON_AND_ORGANIZATION ( #140, #2 ) ;
#13 = PRODUCT_DEFINITION_SHAPE ( 'NONE', 'NONE',  #52 ) ;
#14 = CARTESIAN_POINT ( 'NONE',  ( 3.491481338843133355E-15, -1.224646799147353207E-16, 1.000000000000000000 ) ) ;
#15 = DIRECTION ( 'NONE',  ( 0.0000000000000000000, 1.000000000000000000, 0.0000000000000000000 ) ) ;
#16 = ORIENTED_EDGE ( 'NONE', *, *, #90, .T. ) ;
#17 = APPLICATION_CONTEXT ( 'configuration controlled 3d designs of mechanical parts and assemblies' ) ;
#18 = EDGE_LOOP ( 'NONE', ( #60 ) ) ;
#19 = APPROVAL_PERSON_ORGANIZATION ( #12, #20, #74 ) ;
#20 = APPROVAL ( #104, 'UNSPECIFIED' ) ;
#21 = VERTEX_POINT ( 'NONE', #114 ) ;
#22 = APPLICATION_CONTEXT ( 'configuration controlled 3d designs of mechanical parts and assemblies' ) ;
#23 = LOCAL_TIME ( 7, 16, 16.00000000000000000, #156 ) ;
#24 = FACE_BOUND ( 'NONE', #47, .T. ) ;
#25 = PERSON_AND_ORGANIZATION ( #140, #2 ) ;
#26 = PERSON_AND_ORGANIZATION ( #140, #2 ) ;
#27 = PERSON_AND_ORGANIZATION ( #140, #2 ) ;
#28 = CC_DESIGN_PERSON_AND_ORGANIZATION_ASSIGNMENT ( #117, #88, ( #210 ) ) ;
#29 = DIRECTION ( 'NONE',  ( 0.0000000000000000000, 1.000000000000000000, 0.0000000000000000000 ) ) ;
#30 = EDGE_CURVE ( 'NONE', #169, #169, #130, .T. ) ;
#31 = CC_DESIGN_PERSON_AND_ORGANIZATION_ASSIGNMENT ( #213, #120, ( #200 ) ) ;
#32 = ORIENTED_EDGE ( 'NONE', *, *, #30, .F. ) ;
#33 = ORIENTED_EDGE ( 'NONE', *, *, #90, .F. ) ;
#34 = CARTESIAN_POINT ( 'NONE',  ( 2.832156412083649972E-16, -9.933867456648386652E-18, 0.08111618356872146718 ) ) ;
#35 = AXIS2_PLACEMENT_3D ( 'NONE', #63, #128, #217 ) ;
#36 = DIRECTION ( 'NONE',  ( -3.566536934050440041E-31, -1.000000000000000000, -1.003890900449542065E-16 ) ) ;
#37 = CARTESIAN_POINT ( 'NONE',  ( 3.491481338843133355E-15, 0.1349999999999999534, 1.000000000000000000 ) ) ;
#38 = FACE_OUTER_BOUND ( 'NONE', #164, .T. ) ;
#39 = CARTESIAN_POINT ( 'NONE',  ( 1.047444401652940007E-13, -3.673940397442059178E-15, 30.00000000000000000 ) ) ;
#40 = SECURITY_CLASSIFICATION_LEVEL ( 'unclassified' ) ;
#41 = CIRCLE ( 'NONE', #187, 0.3999999999999989675 ) ;
#42 = CALENDAR_DATE ( 2021, 8, 10 ) ;
#43 = ADVANCED_FACE ( 'NONE', ( #221 ), #123, .F. ) ;
#44 = AXIS2_PLACEMENT_3D ( 'NONE', #64, #181, #79 ) ;
#45 = COORDINATED_UNIVERSAL_TIME_OFFSET ( 1, 0, .AHEAD. ) ;
#46 = EDGE_LOOP ( 'NONE', ( #202 ) ) ;
#47 = EDGE_LOOP ( 'NONE', ( #141 ) ) ;
#48 = CLOSED_SHELL ( 'NONE', ( #43, #4, #135, #171, #101 ) ) ;
#49 = CARTESIAN_POINT ( 'NONE',  ( 8.247572137681247141E-15, -2.892858886794132328E-16, 2.362198544762664110 ) ) ;
#50 = VERTEX_POINT ( 'NONE', #112 ) ;
#51 = FACE_OUTER_BOUND ( 'NONE', #201, .T. ) ;
#52 = PRODUCT_DEFINITION ( 'UNKNOWN', '', #138, #190 ) ;
#53 = VERTEX_POINT ( 'NONE', #1 ) ;
#54 = PLANE ( 'NONE',  #146 ) ;
#55 = APPROVAL_DATE_TIME ( #175, #214 ) ;
#56 = APPROVAL_ROLE ( '' ) ;
#57 = ADVANCED_FACE ( 'NONE', ( #183 ), #161, .T. ) ;
#58 = DATE_AND_TIME ( #211, #10 ) ;
#59 = AXIS2_PLACEMENT_3D ( 'NONE', #34, #165, #36 ) ;
#60 = ORIENTED_EDGE ( 'NONE', *, *, #144, .F. ) ;
#61 = ORIENTED_EDGE ( 'NONE', *, *, #98, .T. ) ;
#62 = EDGE_LOOP ( 'NONE', ( #109 ) ) ;
#63 = CARTESIAN_POINT ( 'NONE',  ( 3.491481338843134933E-15, 6.424901762877069214E-15, 1.000000000000000444 ) ) ;
#64 = CARTESIAN_POINT ( 'NONE',  ( 2.832156412083649972E-16, -9.933867456648386652E-18, 0.08111618356872146718 ) ) ;
#65 = DIRECTION ( 'NONE',  ( 0.0000000000000000000, 1.000000000000000000, 0.0000000000000000000 ) ) ;
#66 = CARTESIAN_POINT ( 'NONE',  ( 3.491481338843134933E-15, 6.424901762877069214E-15, 1.000000000000000444 ) ) ;
#67 = CYLINDRICAL_SURFACE ( 'NONE', #198, 0.1349999999999999811 ) ;
#68 = CALENDAR_DATE ( 2021, 8, 10 ) ;
#69 = MECHANICAL_CONTEXT ( 'NONE', #17, 'mechanical' ) ;
#70 = EDGE_CURVE ( 'NONE', #53, #53, #41, .T. ) ;
#71 = DATE_AND_TIME ( #68, #193 ) ;
#72 = AXIS2_PLACEMENT_3D ( 'NONE', #49, #222, #75 ) ;
#73 = SHAPE_DEFINITION_REPRESENTATION ( #13, #83 ) ;
#74 = APPROVAL_ROLE ( '' ) ;
#75 = DIRECTION ( 'NONE',  ( 0.0000000000000000000, -1.000000000000000000, 0.0000000000000000000 ) ) ;
#76 = CIRCLE ( 'NONE', #134, 0.1350000000000000921 ) ;
#77 = LOCAL_TIME ( 7, 16, 16.00000000000000000, #137 ) ;
#78 = DIRECTION ( 'NONE',  ( 0.0000000000000000000, 1.000000000000000000, 0.0000000000000000000 ) ) ;
#79 = DIRECTION ( 'NONE',  ( 3.566536934050440041E-31, 1.000000000000000000, 1.003890900449542065E-16 ) ) ;
#80 = FACE_OUTER_BOUND ( 'NONE', #122, .T. ) ;
#81 = DIRECTION ( 'NONE',  ( 0.0000000000000000000, 1.000000000000000000, 0.0000000000000000000 ) ) ;
#82 = CLOSED_SHELL ( 'NONE', ( #57, #127, #182 ) ) ;
#83 = ADVANCED_BREP_SHAPE_REPRESENTATION ( '952659', ( #143, #145, #125 ), #118 ) ;
#84 = CARTESIAN_POINT ( 'NONE',  ( 2.832156412083650465E-16, 0.1349999999999998701, 0.08111618356872148106 ) ) ;
#85 = CARTESIAN_POINT ( 'NONE',  ( 8.247572137681247141E-15, -2.892858886794132328E-16, 2.362198544762664110 ) ) ;
#86 = DIRECTION ( 'NONE',  ( 0.0000000000000000000, 0.0000000000000000000, 1.000000000000000000 ) ) ;
#87 = PERSON_AND_ORGANIZATION_ROLE ( 'creator' ) ;
#88 = PERSON_AND_ORGANIZATION_ROLE ( 'design_owner' ) ;
#89 = PERSON_AND_ORGANIZATION ( #140, #2 ) ;
#90 = EDGE_CURVE ( 'NONE', #132, #132, #177, .T. ) ;
#91 = AXIS2_PLACEMENT_3D ( 'NONE', #39, #207, #65 ) ;
#92 = EDGE_LOOP ( 'NONE', ( #33 ) ) ;
#93 = ORIENTED_EDGE ( 'NONE', *, *, #98, .F. ) ;
#94 = CONICAL_SURFACE ( 'NONE', #72, 0.4999999999999966693, 0.2617993877991426910 ) ;
#95 = AXIS2_PLACEMENT_3D ( 'NONE', #66, #131, #152 ) ;
#96 = CC_DESIGN_APPROVAL ( #214, ( #138 ) ) ;
#97 =( NAMED_UNIT ( * ) PLANE_ANGLE_UNIT ( ) SI_UNIT ( $, .RADIAN. ) );
#98 = EDGE_CURVE ( 'NONE', #100, #100, #216, .T. ) ;
#99 = DIRECTION ( 'NONE',  ( 4.275831445896958607E-31, 1.000000000000000000, 1.224646799147353207E-16 ) ) ;
#100 = VERTEX_POINT ( 'NONE', #151 ) ;
#101 = ADVANCED_FACE ( 'NONE', ( #38 ), #54, .F. ) ;
#102 = COORDINATED_UNIVERSAL_TIME_OFFSET ( 1, 0, .AHEAD. ) ;
#103 = COORDINATED_UNIVERSAL_TIME_OFFSET ( 1, 0, .AHEAD. ) ;
#104 = APPROVAL_STATUS ( 'not_yet_approved' ) ;
#105 = ORIENTED_EDGE ( 'NONE', *, *, #70, .F. ) ;
#106 = CARTESIAN_POINT ( 'NONE',  ( 1.047444401652940007E-13, -3.673940397442059178E-15, 30.00000000000000000 ) ) ;
#107 = AXIS2_PLACEMENT_3D ( 'NONE', #172, #170, #209 ) ;
#108 = FACE_BOUND ( 'NONE', #92, .T. ) ;
#109 = ORIENTED_EDGE ( 'NONE', *, *, #144, .T. ) ;
#110 = CIRCLE ( 'NONE', #192, 0.4999999999999966693 ) ;
#111 = CC_DESIGN_APPROVAL ( #220, ( #200 ) ) ;
#112 = CARTESIAN_POINT ( 'NONE',  ( 8.247572137681247141E-15, 0.4999999999999963363, 2.362198544762664110 ) ) ;
#113 = CYLINDRICAL_SURFACE ( 'NONE', #107, 0.4999999999999978351 ) ;
#114 = CARTESIAN_POINT ( 'NONE',  ( 3.491481338843133355E-15, 0.1349999999999999534, 1.000000000000000000 ) ) ;
#115 = UNCERTAINTY_MEASURE_WITH_UNIT (LENGTH_MEASURE( 1.000000000000000082E-05 ), #184, 'distance_accuracy_value', 'NONE');
#116 = DIRECTION ( 'NONE',  ( -3.491481338843133355E-15, 1.224646799147353207E-16, -1.000000000000000000 ) ) ;
#117 = PERSON_AND_ORGANIZATION ( #140, #2 ) ;
#118 =( GEOMETRIC_REPRESENTATION_CONTEXT ( 3 ) GLOBAL_UNCERTAINTY_ASSIGNED_CONTEXT ( ( #115 ) ) GLOBAL_UNIT_ASSIGNED_CONTEXT ( ( #184, #97, #3 ) ) REPRESENTATION_CONTEXT ( 'NONE', 'WORKASPACE' ) );
#119 = DATE_TIME_ROLE ( 'classification_date' ) ;
#120 = PERSON_AND_ORGANIZATION_ROLE ( 'classification_officer' ) ;
#121 = APPROVAL_PERSON_ORGANIZATION ( #25, #214, #9 ) ;
#122 = EDGE_LOOP ( 'NONE', ( #124 ) ) ;
#123 = PLANE ( 'NONE',  #35 ) ;
#124 = ORIENTED_EDGE ( 'NONE', *, *, #166, .T. ) ;
#125 = AXIS2_PLACEMENT_3D ( 'NONE', #148, #86, #159 ) ;
#126 = EDGE_LOOP ( 'NONE', ( #16 ) ) ;
#127 = ADVANCED_FACE ( 'NONE', ( #51, #186 ), #67, .T. ) ;
#128 = DIRECTION ( 'NONE',  ( 3.491481338843133355E-15, -1.224646799147353207E-16, 1.000000000000000000 ) ) ;
#129 = DIRECTION ( 'NONE',  ( -3.491481338843133355E-15, 1.224646799147353207E-16, -1.000000000000000000 ) ) ;
#130 = CIRCLE ( 'NONE', #44, 0.1349999999999998701 ) ;
#131 = DIRECTION ( 'NONE',  ( 3.491481338843133355E-15, -1.224646799147353207E-16, 1.000000000000000000 ) ) ;
#132 = VERTEX_POINT ( 'NONE', #37 ) ;
#133 = FACE_OUTER_BOUND ( 'NONE', #218, .T. ) ;
#134 = AXIS2_PLACEMENT_3D ( 'NONE', #223, #185, #150 ) ;
#135 = ADVANCED_FACE ( 'NONE', ( #133, #5 ), #113, .T. ) ;
#136 = DIRECTION ( 'NONE',  ( 4.275831445896957731E-31, 1.000000000000000000, 1.224646799147352961E-16 ) ) ;
#137 = COORDINATED_UNIVERSAL_TIME_OFFSET ( 1, 0, .AHEAD. ) ;
#138 = PRODUCT_DEFINITION_FORMATION_WITH_SPECIFIED_SOURCE ( 'ANY', '', #210, .NOT_KNOWN. ) ;
#139 = DATE_AND_TIME ( #191, #23 ) ;
#140 = PERSON ( 'UNSPECIFIED', 'UNSPECIFIED', 'UNSPECIFIED', ('UNSPECIFIED'), ('UNSPECIFIED'), ('UNSPECIFIED') ) ;
#141 = ORIENTED_EDGE ( 'NONE', *, *, #70, .T. ) ;
#142 = PRODUCT_RELATED_PRODUCT_CATEGORY ( 'detail', '', ( #210 ) ) ;
#143 = MANIFOLD_SOLID_BREP ( 'Corps-Déplacer/Copier1[1]', #48 ) ;
#144 = EDGE_CURVE ( 'NONE', #21, #21, #76, .T. ) ;
#145 = MANIFOLD_SOLID_BREP ( 'Corps-Déplacer/Copier1[2]', #82 ) ;
#146 = AXIS2_PLACEMENT_3D ( 'NONE', #206, #188, #99 ) ;
#147 = CC_DESIGN_DATE_AND_TIME_ASSIGNMENT ( #155, #8, ( #52 ) ) ;
#148 = CARTESIAN_POINT ( 'NONE',  ( 0.0000000000000000000, 0.0000000000000000000, 0.0000000000000000000 ) ) ;
#149 = FACE_OUTER_BOUND ( 'NONE', #167, .T. ) ;
#150 = DIRECTION ( 'NONE',  ( 0.0000000000000000000, 1.000000000000000000, 0.0000000000000000000 ) ) ;
#151 = CARTESIAN_POINT ( 'NONE',  ( 1.043952920314096936E-13, 0.4999999999999954481, 29.90000000000000213 ) ) ;
#152 = DIRECTION ( 'NONE',  ( -4.275831445896958607E-31, -1.000000000000000000, -1.224646799147353207E-16 ) ) ;
#153 = CC_DESIGN_DATE_AND_TIME_ASSIGNMENT ( #58, #119, ( #200 ) ) ;
#154 = CC_DESIGN_SECURITY_CLASSIFICATION ( #200, ( #138 ) ) ;
#155 = DATE_AND_TIME ( #42, #178 ) ;
#156 = COORDINATED_UNIVERSAL_TIME_OFFSET ( 1, 0, .AHEAD. ) ;
#157 = APPROVAL_DATE_TIME ( #139, #20 ) ;
#158 = CC_DESIGN_PERSON_AND_ORGANIZATION_ASSIGNMENT ( #89, #194, ( #138 ) ) ;
#159 = DIRECTION ( 'NONE',  ( 1.000000000000000000, 0.0000000000000000000, 0.0000000000000000000 ) ) ;
#160 = CC_DESIGN_PERSON_AND_ORGANIZATION_ASSIGNMENT ( #26, #176, ( #52 ) ) ;
#161 = CONICAL_SURFACE ( 'NONE', #59, 0.1349999999999998701, 1.029744258676649649 ) ;
#162 = CC_DESIGN_APPROVAL ( #20, ( #52 ) ) ;
#163 = DIRECTION ( 'NONE',  ( -3.491481338843133355E-15, 1.224646799147353207E-16, -1.000000000000000000 ) ) ;
#164 = EDGE_LOOP ( 'NONE', ( #105 ) ) ;
#165 = DIRECTION ( 'NONE',  ( 3.491481338843133355E-15, -1.224646799147353207E-16, 1.000000000000000000 ) ) ;
#166 = EDGE_CURVE ( 'NONE', #50, #50, #110, .T. ) ;
#167 = EDGE_LOOP ( 'NONE', ( #93 ) ) ;
#168 = FACE_OUTER_BOUND ( 'NONE', #18, .T. ) ;
#169 = VERTEX_POINT ( 'NONE', #84 ) ;
#170 = DIRECTION ( 'NONE',  ( -3.491481338843133355E-15, 1.224646799147353207E-16, -1.000000000000000000 ) ) ;
#171 = ADVANCED_FACE ( 'NONE', ( #149, #24 ), #204, .T. ) ;
#172 = CARTESIAN_POINT ( 'NONE',  ( 0.0000000000000000000, 0.0000000000000000000, 0.0000000000000000000 ) ) ;
#173 = CC_DESIGN_PERSON_AND_ORGANIZATION_ASSIGNMENT ( #27, #87, ( #138 ) ) ;
#174 = APPROVAL_DATE_TIME ( #71, #220 ) ;
#175 = DATE_AND_TIME ( #195, #77 ) ;
#176 = PERSON_AND_ORGANIZATION_ROLE ( 'creator' ) ;
#177 = CIRCLE ( 'NONE', #212, 0.1350000000000000921 ) ;
#178 = LOCAL_TIME ( 7, 16, 16.00000000000000000, #103 ) ;
#179 = DIRECTION ( 'NONE',  ( -3.491481338843133355E-15, 1.224646799147353207E-16, -1.000000000000000000 ) ) ;
#180 = DIRECTION ( 'NONE',  ( -3.491481338843133355E-15, 1.224646799147353207E-16, -1.000000000000000000 ) ) ;
#181 = DIRECTION ( 'NONE',  ( -3.491481338843133355E-15, 1.224646799147353207E-16, -1.000000000000000000 ) ) ;
#182 = ADVANCED_FACE ( 'NONE', ( #168 ), #203, .T. ) ;
#183 = FACE_OUTER_BOUND ( 'NONE', #46, .T. ) ;
#184 =( LENGTH_UNIT ( ) NAMED_UNIT ( * ) SI_UNIT ( .MILLI., .METRE. ) );
#185 = DIRECTION ( 'NONE',  ( -3.491481338843133355E-15, 1.224646799147353207E-16, -1.000000000000000000 ) ) ;
#186 = FACE_OUTER_BOUND ( 'NONE', #62, .T. ) ;
#187 = AXIS2_PLACEMENT_3D ( 'NONE', #106, #179, #29 ) ;
#188 = DIRECTION ( 'NONE',  ( -3.491481338843133355E-15, 1.224646799147353207E-16, -1.000000000000000000 ) ) ;
#189 = CARTESIAN_POINT ( 'NONE',  ( 0.0000000000000000000, 0.0000000000000000000, 0.0000000000000000000 ) ) ;
#190 = DESIGN_CONTEXT ( 'detailed design', #22, 'design' ) ;
#191 = CALENDAR_DATE ( 2021, 8, 10 ) ;
#192 = AXIS2_PLACEMENT_3D ( 'NONE', #85, #116, #81 ) ;
#193 = LOCAL_TIME ( 7, 16, 16.00000000000000000, #45 ) ;
#194 = PERSON_AND_ORGANIZATION_ROLE ( 'design_supplier' ) ;
#195 = CALENDAR_DATE ( 2021, 8, 10 ) ;
#196 = PERSON_AND_ORGANIZATION ( #140, #2 ) ;
#197 = CARTESIAN_POINT ( 'NONE',  ( 1.043952920314096936E-13, -3.661693929450586610E-15, 29.90000000000000213 ) ) ;
#198 = AXIS2_PLACEMENT_3D ( 'NONE', #189, #129, #136 ) ;
#199 = EDGE_LOOP ( 'NONE', ( #61 ) ) ;
#200 = SECURITY_CLASSIFICATION ( '', '', #40 ) ;
#201 = EDGE_LOOP ( 'NONE', ( #32 ) ) ;
#202 = ORIENTED_EDGE ( 'NONE', *, *, #30, .T. ) ;
#203 = PLANE ( 'NONE',  #95 ) ;
#204 = CONICAL_SURFACE ( 'NONE', #91, 0.3999999999999989675, 0.7853981633974694843 ) ;
#205 = APPROVAL_PERSON_ORGANIZATION ( #196, #220, #56 ) ;
#206 = CARTESIAN_POINT ( 'NONE',  ( 1.047444401652940007E-13, 2.999519565323652267E-33, 30.00000000000000000 ) ) ;
#207 = DIRECTION ( 'NONE',  ( -3.491481338843133355E-15, 1.224646799147353207E-16, -1.000000000000000000 ) ) ;
#208 = AXIS2_PLACEMENT_3D ( 'NONE', #197, #180, #15 ) ;
#209 = DIRECTION ( 'NONE',  ( 4.275831445896958607E-31, 1.000000000000000000, 1.224646799147353207E-16 ) ) ;
#210 = PRODUCT ( '952659', '952659', '', ( #69 ) ) ;
#211 = CALENDAR_DATE ( 2021, 8, 10 ) ;
#212 = AXIS2_PLACEMENT_3D ( 'NONE', #14, #163, #78 ) ;
#213 = PERSON_AND_ORGANIZATION ( #140, #2 ) ;
#214 = APPROVAL ( #7, 'UNSPECIFIED' ) ;
#215 = APPLICATION_PROTOCOL_DEFINITION ( 'international standard', 'config_control_design', 1994, #22 ) ;
#216 = CIRCLE ( 'NONE', #208, 0.4999999999999991673 ) ;
#217 = DIRECTION ( 'NONE',  ( -4.275831445896958607E-31, -1.000000000000000000, -1.224646799147353207E-16 ) ) ;
#218 = EDGE_LOOP ( 'NONE', ( #219 ) ) ;
#219 = ORIENTED_EDGE ( 'NONE', *, *, #166, .F. ) ;
#220 = APPROVAL ( #11, 'UNSPECIFIED' ) ;
#221 = FACE_OUTER_BOUND ( 'NONE', #126, .T. ) ;
#222 = DIRECTION ( 'NONE',  ( 3.491481338843133355E-15, -1.224646799147353207E-16, 1.000000000000000000 ) ) ;
#223 = CARTESIAN_POINT ( 'NONE',  ( 3.491481338843133355E-15, -1.224646799147353207E-16, 1.000000000000000000 ) ) ;
ENDSEC;
END-ISO-10303-21;
