ISO-10303-21;
HEADER;
FILE_DESCRIPTION (( 'STEP AP203' ),
    '1' );
FILE_NAME ('952658.step',
    '2021-10-08T05:16:16',
    ( '' ),
    ( '' ),
    'SwSTEP 2.0',
    'SolidWorks 2019',
    '' );
FILE_SCHEMA (( 'CONFIG_CONTROL_DESIGN' ));
ENDSEC;

DATA;
#1 = AXIS2_PLACEMENT_3D ( 'NONE', #201, #184, #130 ) ;
#2 = EDGE_LOOP ( 'NONE', ( #19 ) ) ;
#3 = APPROVAL_ROLE ( '' ) ;
#4 = MANIFOLD_SOLID_BREP ( 'Corps-Déplacer/Copier1[1]', #43 ) ;
#5 = APPROVAL_PERSON_ORGANIZATION ( #77, #49, #3 ) ;
#6 = APPLICATION_CONTEXT ( 'configuration controlled 3d designs of mechanical parts and assemblies' ) ;
#7 = FACE_OUTER_BOUND ( 'NONE', #158, .T. ) ;
#8 = VERTEX_POINT ( 'NONE', #82 ) ;
#9 = EDGE_CURVE ( 'NONE', #28, #28, #63, .T. ) ;
#10 = CARTESIAN_POINT ( 'NONE',  ( 3.491481338843134933E-15, 6.672013369141572908E-15, 1.000000000000000444 ) ) ;
#11 = DIRECTION ( 'NONE',  ( -3.491481338843133355E-15, 1.224646799147353207E-16, -1.000000000000000000 ) ) ;
#12 = PLANE ( 'NONE',  #168 ) ;
#13 = CC_DESIGN_SECURITY_CLASSIFICATION ( #208, ( #135 ) ) ;
#14 = APPROVAL_ROLE ( '' ) ;
#15 = PERSON_AND_ORGANIZATION_ROLE ( 'creator' ) ;
#16 = PERSON_AND_ORGANIZATION_ROLE ( 'creator' ) ;
#17 = AXIS2_PLACEMENT_3D ( 'NONE', #96, #115, #126 ) ;
#18 = DATE_AND_TIME ( #173, #85 ) ;
#19 = ORIENTED_EDGE ( 'NONE', *, *, #137, .F. ) ;
#20 = COORDINATED_UNIVERSAL_TIME_OFFSET ( 1, 0, .AHEAD. ) ;
#21 = CONICAL_SURFACE ( 'NONE', #52, 0.3999999999999989675, 0.7853981633974694843 ) ;
#22 = EDGE_LOOP ( 'NONE', ( #123 ) ) ;
#23 = ORIENTED_EDGE ( 'NONE', *, *, #87, .T. ) ;
#24 = ORIENTED_EDGE ( 'NONE', *, *, #118, .F. ) ;
#25 = AXIS2_PLACEMENT_3D ( 'NONE', #83, #95, #111 ) ;
#26 = FACE_OUTER_BOUND ( 'NONE', #178, .T. ) ;
#27 = ADVANCED_BREP_SHAPE_REPRESENTATION ( '952658', ( #4, #79, #110 ), #154 ) ;
#28 = VERTEX_POINT ( 'NONE', #162 ) ;
#29 = FACE_OUTER_BOUND ( 'NONE', #136, .T. ) ;
#30 = DIRECTION ( 'NONE',  ( -3.703711431513918201E-31, -1.000000000000000000, -1.042502088928370520E-16 ) ) ;
#31 = DIRECTION ( 'NONE',  ( 0.0000000000000000000, 1.000000000000000000, 0.0000000000000000000 ) ) ;
#32 = COORDINATED_UNIVERSAL_TIME_OFFSET ( 1, 0, .AHEAD. ) ;
#33 = PRODUCT_RELATED_PRODUCT_CATEGORY ( 'detail', '', ( #187 ) ) ;
#34 = CONICAL_SURFACE ( 'NONE', #146, 0.4999999999999966693, 0.2617993877991428020 ) ;
#35 = CC_DESIGN_APPROVAL ( #49, ( #208 ) ) ;
#36 =( NAMED_UNIT ( * ) SI_UNIT ( $, .STERADIAN. ) SOLID_ANGLE_UNIT ( ) );
#37 = CARTESIAN_POINT ( 'NONE',  ( 1.043952920314096936E-13, 0.4999999999999954481, 29.90000000000000213 ) ) ;
#38 = ADVANCED_FACE ( 'NONE', ( #48 ), #92, .T. ) ;
#39 = COORDINATED_UNIVERSAL_TIME_OFFSET ( 1, 0, .AHEAD. ) ;
#40 = VERTEX_POINT ( 'NONE', #203 ) ;
#41 = ORIENTED_EDGE ( 'NONE', *, *, #144, .F. ) ;
#42 = CALENDAR_DATE ( 2021, 8, 10 ) ;
#43 = CLOSED_SHELL ( 'NONE', ( #217, #160, #58, #69, #177 ) ) ;
#44 = AXIS2_PLACEMENT_3D ( 'NONE', #62, #214, #198 ) ;
#45 = ORIENTED_EDGE ( 'NONE', *, *, #9, .T. ) ;
#46 = DIRECTION ( 'NONE',  ( 3.491481338843133355E-15, -1.224646799147353207E-16, 1.000000000000000000 ) ) ;
#47 = CIRCLE ( 'NONE', #169, 0.1299999999999998934 ) ;
#48 = FACE_OUTER_BOUND ( 'NONE', #76, .T. ) ;
#49 = APPROVAL ( #156, 'UNSPECIFIED' ) ;
#50 = FACE_OUTER_BOUND ( 'NONE', #22, .T. ) ;
#51 = DIRECTION ( 'NONE',  ( -3.491481338843133355E-15, 1.224646799147353207E-16, -1.000000000000000000 ) ) ;
#52 = AXIS2_PLACEMENT_3D ( 'NONE', #199, #195, #166 ) ;
#53 = APPROVAL ( #55, 'UNSPECIFIED' ) ;
#54 = DIRECTION ( 'NONE',  ( 0.0000000000000000000, 1.000000000000000000, 0.0000000000000000000 ) ) ;
#55 = APPROVAL_STATUS ( 'not_yet_approved' ) ;
#56 =( NAMED_UNIT ( * ) PLANE_ANGLE_UNIT ( ) SI_UNIT ( $, .RADIAN. ) );
#57 = PERSON_AND_ORGANIZATION_ROLE ( 'classification_officer' ) ;
#58 = ADVANCED_FACE ( 'NONE', ( #68, #50 ), #181, .T. ) ;
#59 = APPROVAL_DATE_TIME ( #102, #152 ) ;
#60 = MECHANICAL_CONTEXT ( 'NONE', #6, 'mechanical' ) ;
#61 = EDGE_LOOP ( 'NONE', ( #24 ) ) ;
#62 = CARTESIAN_POINT ( 'NONE',  ( 3.491481338843134933E-15, 6.672013369141572908E-15, 1.000000000000000444 ) ) ;
#63 = CIRCLE ( 'NONE', #163, 0.1299999999999999489 ) ;
#64 = FACE_OUTER_BOUND ( 'NONE', #94, .T. ) ;
#65 = CIRCLE ( 'NONE', #74, 0.4999999999999991673 ) ;
#66 = DIRECTION ( 'NONE',  ( -3.491481338843133355E-15, 1.224646799147353207E-16, -1.000000000000000000 ) ) ;
#67 = DIRECTION ( 'NONE',  ( 3.491481338843133355E-15, -1.224646799147353207E-16, 1.000000000000000000 ) ) ;
#68 = FACE_OUTER_BOUND ( 'NONE', #2, .T. ) ;
#69 = ADVANCED_FACE ( 'NONE', ( #64, #99 ), #21, .T. ) ;
#70 = LOCAL_TIME ( 7, 16, 16.00000000000000000, #73 ) ;
#71 = SECURITY_CLASSIFICATION_LEVEL ( 'unclassified' ) ;
#72 = CIRCLE ( 'NONE', #25, 0.3999999999999989675 ) ;
#73 = COORDINATED_UNIVERSAL_TIME_OFFSET ( 1, 0, .AHEAD. ) ;
#74 = AXIS2_PLACEMENT_3D ( 'NONE', #143, #66, #31 ) ;
#75 = EDGE_LOOP ( 'NONE', ( #142 ) ) ;
#76 = EDGE_LOOP ( 'NONE', ( #212 ) ) ;
#77 = PERSON_AND_ORGANIZATION ( #197, #105 ) ;
#78 = AXIS2_PLACEMENT_3D ( 'NONE', #164, #167, #30 ) ;
#79 = MANIFOLD_SOLID_BREP ( 'Corps-Déplacer/Copier1[2]', #124 ) ;
#80 = DIRECTION ( 'NONE',  ( -3.491481338843133355E-15, 1.224646799147353207E-16, -1.000000000000000000 ) ) ;
#81 = CC_DESIGN_PERSON_AND_ORGANIZATION_ASSIGNMENT ( #153, #15, ( #89 ) ) ;
#82 = CARTESIAN_POINT ( 'NONE',  ( 3.491481338843133355E-15, 0.1299999999999998379, 1.000000000000000000 ) ) ;
#83 = CARTESIAN_POINT ( 'NONE',  ( 1.047444401652940007E-13, -3.673940397442059178E-15, 30.00000000000000000 ) ) ;
#84 = FACE_BOUND ( 'NONE', #75, .T. ) ;
#85 = LOCAL_TIME ( 7, 16, 16.00000000000000000, #39 ) ;
#86 = PERSON_AND_ORGANIZATION ( #197, #105 ) ;
#87 = EDGE_CURVE ( 'NONE', #8, #8, #159, .T. ) ;
#88 = LOCAL_TIME ( 7, 16, 16.00000000000000000, #32 ) ;
#89 = PRODUCT_DEFINITION ( 'UNKNOWN', '', #135, #129 ) ;
#90 = DATE_AND_TIME ( #151, #70 ) ;
#91 = PRODUCT_DEFINITION_SHAPE ( 'NONE', 'NONE',  #89 ) ;
#92 = CONICAL_SURFACE ( 'NONE', #78, 0.1299999999999998934, 1.029744258676649649 ) ;
#93 = CC_DESIGN_APPROVAL ( #53, ( #89 ) ) ;
#94 = EDGE_LOOP ( 'NONE', ( #106 ) ) ;
#95 = DIRECTION ( 'NONE',  ( -3.491481338843133355E-15, 1.224646799147353207E-16, -1.000000000000000000 ) ) ;
#96 = CARTESIAN_POINT ( 'NONE',  ( 0.0000000000000000000, 0.0000000000000000000, 0.0000000000000000000 ) ) ;
#97 = ADVANCED_FACE ( 'NONE', ( #7, #148 ), #100, .T. ) ;
#98 = PLANE ( 'NONE',  #44 ) ;
#99 = FACE_BOUND ( 'NONE', #125, .T. ) ;
#100 = CYLINDRICAL_SURFACE ( 'NONE', #17, 0.1299999999999998934 ) ;
#101 = CC_DESIGN_DATE_AND_TIME_ASSIGNMENT ( #18, #138, ( #208 ) ) ;
#102 = DATE_AND_TIME ( #220, #88 ) ;
#103 = DATE_AND_TIME ( #191, #183 ) ;
#104 = PERSON_AND_ORGANIZATION ( #197, #105 ) ;
#105 = ORGANIZATION ( 'UNSPECIFIED', 'UNSPECIFIED', '' ) ;
#106 = ORIENTED_EDGE ( 'NONE', *, *, #185, .F. ) ;
#107 = CC_DESIGN_DATE_AND_TIME_ASSIGNMENT ( #90, #117, ( #89 ) ) ;
#108 = ORIENTED_EDGE ( 'NONE', *, *, #118, .T. ) ;
#109 = CC_DESIGN_PERSON_AND_ORGANIZATION_ASSIGNMENT ( #86, #150, ( #135 ) ) ;
#110 = AXIS2_PLACEMENT_3D ( 'NONE', #133, #176, #221 ) ;
#111 = DIRECTION ( 'NONE',  ( 0.0000000000000000000, 1.000000000000000000, 0.0000000000000000000 ) ) ;
#112 = DIRECTION ( 'NONE',  ( 0.0000000000000000000, 1.000000000000000000, 0.0000000000000000000 ) ) ;
#113 = DIRECTION ( 'NONE',  ( -3.491481338843133355E-15, 1.224646799147353207E-16, -1.000000000000000000 ) ) ;
#114 = ADVANCED_FACE ( 'NONE', ( #131 ), #147, .T. ) ;
#115 = DIRECTION ( 'NONE',  ( -3.491481338843133355E-15, 1.224646799147353207E-16, -1.000000000000000000 ) ) ;
#116 = DIRECTION ( 'NONE',  ( -4.275831445896958607E-31, -1.000000000000000000, -1.224646799147353207E-16 ) ) ;
#117 = DATE_TIME_ROLE ( 'creation_date' ) ;
#118 = EDGE_CURVE ( 'NONE', #215, #215, #72, .T. ) ;
#119 = PERSON_AND_ORGANIZATION_ROLE ( 'design_owner' ) ;
#120 = PERSON_AND_ORGANIZATION ( #197, #105 ) ;
#121 = COORDINATED_UNIVERSAL_TIME_OFFSET ( 1, 0, .AHEAD. ) ;
#122 = APPLICATION_CONTEXT ( 'configuration controlled 3d designs of mechanical parts and assemblies' ) ;
#123 = ORIENTED_EDGE ( 'NONE', *, *, #185, .T. ) ;
#124 = CLOSED_SHELL ( 'NONE', ( #38, #97, #114 ) ) ;
#125 = EDGE_LOOP ( 'NONE', ( #108 ) ) ;
#126 = DIRECTION ( 'NONE',  ( 4.275831445896958607E-31, 1.000000000000000000, 1.224646799147353454E-16 ) ) ;
#127 = AXIS2_PLACEMENT_3D ( 'NONE', #219, #213, #112 ) ;
#128 = DIRECTION ( 'NONE',  ( 3.703711431513918201E-31, 1.000000000000000000, 1.042502088928370520E-16 ) ) ;
#129 = DESIGN_CONTEXT ( 'detailed design', #122, 'design' ) ;
#130 = DIRECTION ( 'NONE',  ( 4.275831445896958607E-31, 1.000000000000000000, 1.224646799147353207E-16 ) ) ;
#131 = FACE_OUTER_BOUND ( 'NONE', #194, .T. ) ;
#132 = APPLICATION_PROTOCOL_DEFINITION ( 'international standard', 'config_control_design', 1994, #122 ) ;
#133 = CARTESIAN_POINT ( 'NONE',  ( 0.0000000000000000000, 0.0000000000000000000, 0.0000000000000000000 ) ) ;
#134 = CIRCLE ( 'NONE', #127, 0.4999999999999966693 ) ;
#135 = PRODUCT_DEFINITION_FORMATION_WITH_SPECIFIED_SOURCE ( 'ANY', '', #187, .NOT_KNOWN. ) ;
#136 = EDGE_LOOP ( 'NONE', ( #45 ) ) ;
#137 = EDGE_CURVE ( 'NONE', #40, #40, #134, .T. ) ;
#138 = DATE_TIME_ROLE ( 'classification_date' ) ;
#139 = CARTESIAN_POINT ( 'NONE',  ( 3.491481338843133355E-15, -1.224646799147353207E-16, 1.000000000000000000 ) ) ;
#140 = CC_DESIGN_APPROVAL ( #152, ( #135 ) ) ;
#141 = CC_DESIGN_PERSON_AND_ORGANIZATION_ASSIGNMENT ( #120, #16, ( #135 ) ) ;
#142 = ORIENTED_EDGE ( 'NONE', *, *, #9, .F. ) ;
#143 = CARTESIAN_POINT ( 'NONE',  ( 1.043952920314096936E-13, -3.661693929450586610E-15, 29.90000000000000213 ) ) ;
#144 = EDGE_CURVE ( 'NONE', #155, #155, #47, .T. ) ;
#145 = DIRECTION ( 'NONE',  ( 0.0000000000000000000, 1.000000000000000000, 0.0000000000000000000 ) ) ;
#146 = AXIS2_PLACEMENT_3D ( 'NONE', #161, #67, #149 ) ;
#147 = PLANE ( 'NONE',  #174 ) ;
#148 = FACE_OUTER_BOUND ( 'NONE', #157, .T. ) ;
#149 = DIRECTION ( 'NONE',  ( 0.0000000000000000000, -1.000000000000000000, 0.0000000000000000000 ) ) ;
#150 = PERSON_AND_ORGANIZATION_ROLE ( 'design_supplier' ) ;
#151 = CALENDAR_DATE ( 2021, 8, 10 ) ;
#152 = APPROVAL ( #172, 'UNSPECIFIED' ) ;
#153 = PERSON_AND_ORGANIZATION ( #197, #105 ) ;
#154 =( GEOMETRIC_REPRESENTATION_CONTEXT ( 3 ) GLOBAL_UNCERTAINTY_ASSIGNED_CONTEXT ( ( #216 ) ) GLOBAL_UNIT_ASSIGNED_CONTEXT ( ( #170, #56, #36 ) ) REPRESENTATION_CONTEXT ( 'NONE', 'WORKASPACE' ) );
#155 = VERTEX_POINT ( 'NONE', #202 ) ;
#156 = APPROVAL_STATUS ( 'not_yet_approved' ) ;
#157 = EDGE_LOOP ( 'NONE', ( #23 ) ) ;
#158 = EDGE_LOOP ( 'NONE', ( #41 ) ) ;
#159 = CIRCLE ( 'NONE', #206, 0.1299999999999999489 ) ;
#160 = ADVANCED_FACE ( 'NONE', ( #84, #26 ), #34, .T. ) ;
#161 = CARTESIAN_POINT ( 'NONE',  ( 8.312724066432455411E-15, -2.915711107172855043E-16, 2.380858798800508769 ) ) ;
#162 = CARTESIAN_POINT ( 'NONE',  ( 3.491481338843133355E-15, 0.1299999999999998379, 1.000000000000000000 ) ) ;
#163 = AXIS2_PLACEMENT_3D ( 'NONE', #139, #51, #54 ) ;
#164 = CARTESIAN_POINT ( 'NONE',  ( 2.727261730154625662E-16, -9.565946439735483158E-18, 0.07811188047358363917 ) ) ;
#165 = CC_DESIGN_PERSON_AND_ORGANIZATION_ASSIGNMENT ( #104, #119, ( #187 ) ) ;
#166 = DIRECTION ( 'NONE',  ( 0.0000000000000000000, 1.000000000000000000, 0.0000000000000000000 ) ) ;
#167 = DIRECTION ( 'NONE',  ( 3.491481338843133355E-15, -1.224646799147353207E-16, 1.000000000000000000 ) ) ;
#168 = AXIS2_PLACEMENT_3D ( 'NONE', #180, #80, #186 ) ;
#169 = AXIS2_PLACEMENT_3D ( 'NONE', #200, #113, #128 ) ;
#170 =( LENGTH_UNIT ( ) NAMED_UNIT ( * ) SI_UNIT ( .MILLI., .METRE. ) );
#171 = APPROVAL_DATE_TIME ( #103, #53 ) ;
#172 = APPROVAL_STATUS ( 'not_yet_approved' ) ;
#173 = CALENDAR_DATE ( 2021, 8, 10 ) ;
#174 = AXIS2_PLACEMENT_3D ( 'NONE', #10, #46, #116 ) ;
#175 = CC_DESIGN_PERSON_AND_ORGANIZATION_ASSIGNMENT ( #204, #57, ( #208 ) ) ;
#176 = DIRECTION ( 'NONE',  ( 0.0000000000000000000, 0.0000000000000000000, 1.000000000000000000 ) ) ;
#177 = ADVANCED_FACE ( 'NONE', ( #218 ), #12, .F. ) ;
#178 = EDGE_LOOP ( 'NONE', ( #207 ) ) ;
#179 = APPROVAL_PERSON_ORGANIZATION ( #188, #152, #14 ) ;
#180 = CARTESIAN_POINT ( 'NONE',  ( 1.047444401652940007E-13, 2.999519565323652267E-33, 30.00000000000000000 ) ) ;
#181 = CYLINDRICAL_SURFACE ( 'NONE', #1, 0.4999999999999978351 ) ;
#182 = CARTESIAN_POINT ( 'NONE',  ( 3.491481338843133355E-15, -1.224646799147353207E-16, 1.000000000000000000 ) ) ;
#183 = LOCAL_TIME ( 7, 16, 16.00000000000000000, #121 ) ;
#184 = DIRECTION ( 'NONE',  ( -3.491481338843133355E-15, 1.224646799147353207E-16, -1.000000000000000000 ) ) ;
#185 = EDGE_CURVE ( 'NONE', #190, #190, #65, .T. ) ;
#186 = DIRECTION ( 'NONE',  ( 4.275831445896958607E-31, 1.000000000000000000, 1.224646799147353207E-16 ) ) ;
#187 = PRODUCT ( '952658', '952658', '', ( #60 ) ) ;
#188 = PERSON_AND_ORGANIZATION ( #197, #105 ) ;
#189 = PERSON_AND_ORGANIZATION ( #197, #105 ) ;
#190 = VERTEX_POINT ( 'NONE', #37 ) ;
#191 = CALENDAR_DATE ( 2021, 8, 10 ) ;
#192 = CARTESIAN_POINT ( 'NONE',  ( 1.047444401652940007E-13, 0.3999999999999953038, 30.00000000000000000 ) ) ;
#193 = SHAPE_DEFINITION_REPRESENTATION ( #91, #27 ) ;
#194 = EDGE_LOOP ( 'NONE', ( #210 ) ) ;
#195 = DIRECTION ( 'NONE',  ( -3.491481338843133355E-15, 1.224646799147353207E-16, -1.000000000000000000 ) ) ;
#196 = APPROVAL_PERSON_ORGANIZATION ( #189, #53, #205 ) ;
#197 = PERSON ( 'UNSPECIFIED', 'UNSPECIFIED', 'UNSPECIFIED', ('UNSPECIFIED'), ('UNSPECIFIED'), ('UNSPECIFIED') ) ;
#198 = DIRECTION ( 'NONE',  ( -4.275831445896958607E-31, -1.000000000000000000, -1.224646799147353207E-16 ) ) ;
#199 = CARTESIAN_POINT ( 'NONE',  ( 1.047444401652940007E-13, -3.673940397442059178E-15, 30.00000000000000000 ) ) ;
#200 = CARTESIAN_POINT ( 'NONE',  ( 2.727261730154625662E-16, -9.565946439735483158E-18, 0.07811188047358363917 ) ) ;
#201 = CARTESIAN_POINT ( 'NONE',  ( 0.0000000000000000000, 0.0000000000000000000, 0.0000000000000000000 ) ) ;
#202 = CARTESIAN_POINT ( 'NONE',  ( 2.727261730154626155E-16, 0.1299999999999998934, 0.07811188047358365305 ) ) ;
#203 = CARTESIAN_POINT ( 'NONE',  ( 8.312724066432455411E-15, 0.4999999999999963363, 2.380858798800508769 ) ) ;
#204 = PERSON_AND_ORGANIZATION ( #197, #105 ) ;
#205 = APPROVAL_ROLE ( '' ) ;
#206 = AXIS2_PLACEMENT_3D ( 'NONE', #182, #11, #145 ) ;
#207 = ORIENTED_EDGE ( 'NONE', *, *, #137, .T. ) ;
#208 = SECURITY_CLASSIFICATION ( '', '', #71 ) ;
#209 = DATE_AND_TIME ( #42, #211 ) ;
#210 = ORIENTED_EDGE ( 'NONE', *, *, #87, .F. ) ;
#211 = LOCAL_TIME ( 7, 16, 16.00000000000000000, #20 ) ;
#212 = ORIENTED_EDGE ( 'NONE', *, *, #144, .T. ) ;
#213 = DIRECTION ( 'NONE',  ( -3.491481338843133355E-15, 1.224646799147353207E-16, -1.000000000000000000 ) ) ;
#214 = DIRECTION ( 'NONE',  ( 3.491481338843133355E-15, -1.224646799147353207E-16, 1.000000000000000000 ) ) ;
#215 = VERTEX_POINT ( 'NONE', #192 ) ;
#216 = UNCERTAINTY_MEASURE_WITH_UNIT (LENGTH_MEASURE( 1.000000000000000082E-05 ), #170, 'distance_accuracy_value', 'NONE');
#217 = ADVANCED_FACE ( 'NONE', ( #29 ), #98, .F. ) ;
#218 = FACE_OUTER_BOUND ( 'NONE', #61, .T. ) ;
#219 = CARTESIAN_POINT ( 'NONE',  ( 8.312724066432455411E-15, -2.915711107172855043E-16, 2.380858798800508769 ) ) ;
#220 = CALENDAR_DATE ( 2021, 8, 10 ) ;
#221 = DIRECTION ( 'NONE',  ( 1.000000000000000000, 0.0000000000000000000, 0.0000000000000000000 ) ) ;
#222 = APPLICATION_PROTOCOL_DEFINITION ( 'international standard', 'config_control_design', 1994, #6 ) ;
#223 = APPROVAL_DATE_TIME ( #209, #49 ) ;
ENDSEC;
END-ISO-10303-21;
