ISO-10303-21;
HEADER;
FILE_DESCRIPTION (( 'STEP AP203' ),
    '1' );
FILE_NAME ('952657.step',
    '2021-10-08T05:16:15',
    ( '' ),
    ( '' ),
    'SwSTEP 2.0',
    'SolidWorks 2019',
    '' );
FILE_SCHEMA (( 'CONFIG_CONTROL_DESIGN' ));
ENDSEC;

DATA;
#1 = DIRECTION ( 'NONE',  ( 0.0000000000000000000, 1.000000000000000000, 0.0000000000000000000 ) ) ;
#2 = CARTESIAN_POINT ( 'NONE',  ( 3.491481338843134933E-15, 6.938893903907236266E-15, 1.000000000000000444 ) ) ;
#3 = MANIFOLD_SOLID_BREP ( 'Corps-Déplacer/Copier1[1]', #96 ) ;
#4 = CC_DESIGN_PERSON_AND_ORGANIZATION_ASSIGNMENT ( #133, #29, ( #200 ) ) ;
#5 = MANIFOLD_SOLID_BREP ( 'Corps-Déplacer/Copier1[2]', #6 ) ;
#6 = CLOSED_SHELL ( 'NONE', ( #171, #30, #218 ) ) ;
#7 = DIRECTION ( 'NONE',  ( -3.491481338843133355E-15, 1.224646799147353207E-16, -1.000000000000000000 ) ) ;
#8 = APPLICATION_PROTOCOL_DEFINITION ( 'international standard', 'config_control_design', 1994, #164 ) ;
#9 = DATE_AND_TIME ( #215, #17 ) ;
#10 = CC_DESIGN_APPROVAL ( #134, ( #158 ) ) ;
#11 = PLANE ( 'NONE',  #102 ) ;
#12 = ORIENTED_EDGE ( 'NONE', *, *, #187, .F. ) ;
#13 = ADVANCED_FACE ( 'NONE', ( #64 ), #195, .F. ) ;
#14 = APPLICATION_PROTOCOL_DEFINITION ( 'international standard', 'config_control_design', 1994, #68 ) ;
#15 = CARTESIAN_POINT ( 'NONE',  ( 0.0000000000000000000, 0.0000000000000000000, 0.0000000000000000000 ) ) ;
#16 = SHAPE_DEFINITION_REPRESENTATION ( #100, #223 ) ;
#17 = LOCAL_TIME ( 7, 16, 15.00000000000000000, #71 ) ;
#18 = DIRECTION ( 'NONE',  ( 3.491481338843133355E-15, -1.224646799147353207E-16, 1.000000000000000000 ) ) ;
#19 = APPROVAL_DATE_TIME ( #116, #134 ) ;
#20 = AXIS2_PLACEMENT_3D ( 'NONE', #99, #154, #24 ) ;
#21 = APPROVAL_PERSON_ORGANIZATION ( #73, #57, #62 ) ;
#22 =( GEOMETRIC_REPRESENTATION_CONTEXT ( 3 ) GLOBAL_UNCERTAINTY_ASSIGNED_CONTEXT ( ( #69 ) ) GLOBAL_UNIT_ASSIGNED_CONTEXT ( ( #89, #37, #39 ) ) REPRESENTATION_CONTEXT ( 'NONE', 'WORKASPACE' ) );
#23 = DIRECTION ( 'NONE',  ( 0.0000000000000000000, 1.000000000000000000, 0.0000000000000000000 ) ) ;
#24 = DIRECTION ( 'NONE',  ( 4.275831445896958607E-31, 1.000000000000000000, 1.224646799147353207E-16 ) ) ;
#25 = APPROVAL_DATE_TIME ( #157, #144 ) ;
#26 = PRODUCT_DEFINITION ( 'UNKNOWN', '', #200, #54 ) ;
#27 = CARTESIAN_POINT ( 'NONE',  ( 3.491481338843134144E-15, 0.1249999999999999445, 1.000000000000000222 ) ) ;
#28 = APPROVAL_DATE_TIME ( #111, #57 ) ;
#29 = PERSON_AND_ORGANIZATION_ROLE ( 'creator' ) ;
#30 = ADVANCED_FACE ( 'NONE', ( #179, #80 ), #213, .T. ) ;
#31 = DIRECTION ( 'NONE',  ( -3.491481338843133355E-15, 1.224646799147353207E-16, -1.000000000000000000 ) ) ;
#32 = DIRECTION ( 'NONE',  ( 4.275831445896958607E-31, 1.000000000000000000, 1.224646799147353207E-16 ) ) ;
#33 = CIRCLE ( 'NONE', #162, 0.1249999999999998612 ) ;
#34 = CONICAL_SURFACE ( 'NONE', #136, 0.4999999999999966693, 0.2617993877991427465 ) ;
#35 = AXIS2_PLACEMENT_3D ( 'NONE', #58, #128, #61 ) ;
#36 = ORIENTED_EDGE ( 'NONE', *, *, #187, .T. ) ;
#37 =( NAMED_UNIT ( * ) PLANE_ANGLE_UNIT ( ) SI_UNIT ( $, .RADIAN. ) );
#38 = CARTESIAN_POINT ( 'NONE',  ( 2.622367048225601351E-16, -9.198025422822579663E-18, 0.07510757737844579729 ) ) ;
#39 =( NAMED_UNIT ( * ) SI_UNIT ( $, .STERADIAN. ) SOLID_ANGLE_UNIT ( ) );
#40 = CC_DESIGN_PERSON_AND_ORGANIZATION_ASSIGNMENT ( #75, #104, ( #201 ) ) ;
#41 = CIRCLE ( 'NONE', #197, 0.4999999999999966693 ) ;
#42 = EDGE_LOOP ( 'NONE', ( #132 ) ) ;
#43 = EDGE_LOOP ( 'NONE', ( #149 ) ) ;
#44 = CARTESIAN_POINT ( 'NONE',  ( 8.377875995183662104E-15, -2.938563327551578251E-16, 2.399519052838353428 ) ) ;
#45 = ORIENTED_EDGE ( 'NONE', *, *, #46, .T. ) ;
#46 = EDGE_CURVE ( 'NONE', #123, #123, #173, .T. ) ;
#47 = PERSON_AND_ORGANIZATION_ROLE ( 'design_supplier' ) ;
#48 = FACE_OUTER_BOUND ( 'NONE', #42, .T. ) ;
#49 = DIRECTION ( 'NONE',  ( 0.0000000000000000000, 1.000000000000000000, 0.0000000000000000000 ) ) ;
#50 = AXIS2_PLACEMENT_3D ( 'NONE', #51, #84, #72 ) ;
#51 = CARTESIAN_POINT ( 'NONE',  ( 1.047444401652940007E-13, -3.673940397442059178E-15, 30.00000000000000000 ) ) ;
#52 = ORIENTED_EDGE ( 'NONE', *, *, #214, .F. ) ;
#53 = PERSON ( 'UNSPECIFIED', 'UNSPECIFIED', 'UNSPECIFIED', ('UNSPECIFIED'), ('UNSPECIFIED'), ('UNSPECIFIED') ) ;
#54 = DESIGN_CONTEXT ( 'detailed design', #164, 'design' ) ;
#55 = CC_DESIGN_APPROVAL ( #144, ( #26 ) ) ;
#56 = DATE_TIME_ROLE ( 'creation_date' ) ;
#57 = APPROVAL ( #142, 'UNSPECIFIED' ) ;
#58 = CARTESIAN_POINT ( 'NONE',  ( 3.491481338843134933E-15, 6.938893903907236266E-15, 1.000000000000000444 ) ) ;
#59 = AXIS2_PLACEMENT_3D ( 'NONE', #15, #31, #32 ) ;
#60 = EDGE_CURVE ( 'NONE', #140, #140, #141, .T. ) ;
#61 = DIRECTION ( 'NONE',  ( -4.275831445896958607E-31, -1.000000000000000000, -1.224646799147353207E-16 ) ) ;
#62 = APPROVAL_ROLE ( '' ) ;
#63 = FACE_OUTER_BOUND ( 'NONE', #93, .T. ) ;
#64 = FACE_OUTER_BOUND ( 'NONE', #172, .T. ) ;
#65 = APPROVAL_PERSON_ORGANIZATION ( #150, #134, #78 ) ;
#66 = CIRCLE ( 'NONE', #199, 0.4999999999999991673 ) ;
#67 = CC_DESIGN_PERSON_AND_ORGANIZATION_ASSIGNMENT ( #118, #192, ( #158 ) ) ;
#68 = APPLICATION_CONTEXT ( 'configuration controlled 3d designs of mechanical parts and assemblies' ) ;
#69 = UNCERTAINTY_MEASURE_WITH_UNIT (LENGTH_MEASURE( 1.000000000000000082E-05 ), #89, 'distance_accuracy_value', 'NONE');
#70 = ORIENTED_EDGE ( 'NONE', *, *, #60, .F. ) ;
#71 = COORDINATED_UNIVERSAL_TIME_OFFSET ( 1, 0, .AHEAD. ) ;
#72 = DIRECTION ( 'NONE',  ( 0.0000000000000000000, 1.000000000000000000, 0.0000000000000000000 ) ) ;
#73 = PERSON_AND_ORGANIZATION ( #53, #137 ) ;
#74 = DIRECTION ( 'NONE',  ( 0.0000000000000000000, 1.000000000000000000, 0.0000000000000000000 ) ) ;
#75 = PERSON_AND_ORGANIZATION ( #53, #137 ) ;
#76 = MECHANICAL_CONTEXT ( 'NONE', #68, 'mechanical' ) ;
#77 = AXIS2_PLACEMENT_3D ( 'NONE', #125, #206, #23 ) ;
#78 = APPROVAL_ROLE ( '' ) ;
#79 = CARTESIAN_POINT ( 'NONE',  ( 1.047444401652940007E-13, -3.673940397442059178E-15, 30.00000000000000000 ) ) ;
#80 = FACE_OUTER_BOUND ( 'NONE', #190, .T. ) ;
#81 = DIRECTION ( 'NONE',  ( 3.851859888774476085E-31, 1.000000000000000000, 1.084202172485505667E-16 ) ) ;
#82 = DIRECTION ( 'NONE',  ( 4.275831445896958607E-31, 1.000000000000000000, 1.224646799147353207E-16 ) ) ;
#83 = FACE_BOUND ( 'NONE', #185, .T. ) ;
#84 = DIRECTION ( 'NONE',  ( -3.491481338843133355E-15, 1.224646799147353207E-16, -1.000000000000000000 ) ) ;
#85 = CIRCLE ( 'NONE', #77, 0.1250000000000000833 ) ;
#86 = CARTESIAN_POINT ( 'NONE',  ( 3.491481338843134144E-15, -1.224646799147353454E-16, 1.000000000000000222 ) ) ;
#87 = DIRECTION ( 'NONE',  ( -3.491481338843133355E-15, 1.224646799147353207E-16, -1.000000000000000000 ) ) ;
#88 = DIRECTION ( 'NONE',  ( -3.491481338843133355E-15, 1.224646799147353207E-16, -1.000000000000000000 ) ) ;
#89 =( LENGTH_UNIT ( ) NAMED_UNIT ( * ) SI_UNIT ( .MILLI., .METRE. ) );
#90 = PRODUCT_RELATED_PRODUCT_CATEGORY ( 'detail', '', ( #201 ) ) ;
#91 = APPROVAL_PERSON_ORGANIZATION ( #183, #144, #186 ) ;
#92 = CARTESIAN_POINT ( 'NONE',  ( 2.622367048225601844E-16, 0.1249999999999998612, 0.07510757737844581117 ) ) ;
#93 = EDGE_LOOP ( 'NONE', ( #52 ) ) ;
#94 = CALENDAR_DATE ( 2021, 8, 10 ) ;
#95 = COORDINATED_UNIVERSAL_TIME_OFFSET ( 1, 0, .AHEAD. ) ;
#96 = CLOSED_SHELL ( 'NONE', ( #13, #114, #106, #170, #138 ) ) ;
#97 = AXIS2_PLACEMENT_3D ( 'NONE', #204, #159, #181 ) ;
#98 = CC_DESIGN_PERSON_AND_ORGANIZATION_ASSIGNMENT ( #156, #205, ( #26 ) ) ;
#99 = CARTESIAN_POINT ( 'NONE',  ( 0.0000000000000000000, 0.0000000000000000000, 0.0000000000000000000 ) ) ;
#100 = PRODUCT_DEFINITION_SHAPE ( 'NONE', 'NONE',  #26 ) ;
#101 = EDGE_LOOP ( 'NONE', ( #105 ) ) ;
#102 = AXIS2_PLACEMENT_3D ( 'NONE', #198, #176, #82 ) ;
#103 = APPROVAL_STATUS ( 'not_yet_approved' ) ;
#104 = PERSON_AND_ORGANIZATION_ROLE ( 'design_owner' ) ;
#105 = ORIENTED_EDGE ( 'NONE', *, *, #214, .T. ) ;
#106 = ADVANCED_FACE ( 'NONE', ( #63, #166 ), #203, .T. ) ;
#107 = VERTEX_POINT ( 'NONE', #92 ) ;
#108 = EDGE_LOOP ( 'NONE', ( #115 ) ) ;
#109 = CALENDAR_DATE ( 2021, 8, 10 ) ;
#110 = VERTEX_POINT ( 'NONE', #145 ) ;
#111 = DATE_AND_TIME ( #208, #189 ) ;
#112 = DIRECTION ( 'NONE',  ( 0.0000000000000000000, -1.000000000000000000, 0.0000000000000000000 ) ) ;
#113 = DIRECTION ( 'NONE',  ( -3.491481338843133355E-15, 1.224646799147353207E-16, -1.000000000000000000 ) ) ;
#114 = ADVANCED_FACE ( 'NONE', ( #119, #196 ), #34, .T. ) ;
#115 = ORIENTED_EDGE ( 'NONE', *, *, #155, .F. ) ;
#116 = DATE_AND_TIME ( #94, #175 ) ;
#117 = SECURITY_CLASSIFICATION_LEVEL ( 'unclassified' ) ;
#118 = PERSON_AND_ORGANIZATION ( #53, #137 ) ;
#119 = FACE_BOUND ( 'NONE', #127, .T. ) ;
#120 = ORIENTED_EDGE ( 'NONE', *, *, #60, .T. ) ;
#121 = CONICAL_SURFACE ( 'NONE', #50, 0.3999999999999989675, 0.7853981633974694843 ) ;
#122 = ORIENTED_EDGE ( 'NONE', *, *, #168, .T. ) ;
#123 = VERTEX_POINT ( 'NONE', #148 ) ;
#124 = DIRECTION ( 'NONE',  ( 0.0000000000000000000, 1.000000000000000000, 0.0000000000000000000 ) ) ;
#125 = CARTESIAN_POINT ( 'NONE',  ( 3.491481338843134144E-15, -1.224646799147353454E-16, 1.000000000000000222 ) ) ;
#126 = CARTESIAN_POINT ( 'NONE',  ( 1.047444401652940007E-13, 0.3999999999999953038, 30.00000000000000000 ) ) ;
#127 = EDGE_LOOP ( 'NONE', ( #211 ) ) ;
#128 = DIRECTION ( 'NONE',  ( 3.491481338843133355E-15, -1.224646799147353207E-16, 1.000000000000000000 ) ) ;
#129 = EDGE_LOOP ( 'NONE', ( #122 ) ) ;
#130 = AXIS2_PLACEMENT_3D ( 'NONE', #209, #18, #182 ) ;
#131 = CARTESIAN_POINT ( 'NONE',  ( 8.377875995183662104E-15, 0.4999999999999963363, 2.399519052838353428 ) ) ;
#132 = ORIENTED_EDGE ( 'NONE', *, *, #155, .T. ) ;
#133 = PERSON_AND_ORGANIZATION ( #53, #137 ) ;
#134 = APPROVAL ( #165, 'UNSPECIFIED' ) ;
#135 = DIRECTION ( 'NONE',  ( -4.275831445896958607E-31, -1.000000000000000000, -1.224646799147353207E-16 ) ) ;
#136 = AXIS2_PLACEMENT_3D ( 'NONE', #216, #184, #112 ) ;
#137 = ORGANIZATION ( 'UNSPECIFIED', 'UNSPECIFIED', '' ) ;
#138 = ADVANCED_FACE ( 'NONE', ( #151 ), #11, .F. ) ;
#139 = DIRECTION ( 'NONE',  ( 3.491481338843133355E-15, -1.224646799147353207E-16, 1.000000000000000000 ) ) ;
#140 = VERTEX_POINT ( 'NONE', #126 ) ;
#141 = CIRCLE ( 'NONE', #153, 0.3999999999999989675 ) ;
#142 = APPROVAL_STATUS ( 'not_yet_approved' ) ;
#143 = PLANE ( 'NONE',  #35 ) ;
#144 = APPROVAL ( #103, 'UNSPECIFIED' ) ;
#145 = CARTESIAN_POINT ( 'NONE',  ( 1.043952920314096936E-13, 0.4999999999999954481, 29.90000000000000213 ) ) ;
#146 = CC_DESIGN_DATE_AND_TIME_ASSIGNMENT ( #9, #56, ( #26 ) ) ;
#147 = AXIS2_PLACEMENT_3D ( 'NONE', #86, #88, #124 ) ;
#148 = CARTESIAN_POINT ( 'NONE',  ( 3.491481338843134144E-15, 0.1249999999999999445, 1.000000000000000222 ) ) ;
#149 = ORIENTED_EDGE ( 'NONE', *, *, #168, .F. ) ;
#150 = PERSON_AND_ORGANIZATION ( #53, #137 ) ;
#151 = FACE_OUTER_BOUND ( 'NONE', #207, .T. ) ;
#152 = CALENDAR_DATE ( 2021, 8, 10 ) ;
#153 = AXIS2_PLACEMENT_3D ( 'NONE', #79, #113, #49 ) ;
#154 = DIRECTION ( 'NONE',  ( -3.491481338843133355E-15, 1.224646799147353207E-16, -1.000000000000000000 ) ) ;
#155 = EDGE_CURVE ( 'NONE', #107, #107, #33, .T. ) ;
#156 = PERSON_AND_ORGANIZATION ( #53, #137 ) ;
#157 = DATE_AND_TIME ( #109, #219 ) ;
#158 = SECURITY_CLASSIFICATION ( '', '', #117 ) ;
#159 = DIRECTION ( 'NONE',  ( 0.0000000000000000000, 0.0000000000000000000, 1.000000000000000000 ) ) ;
#160 = COORDINATED_UNIVERSAL_TIME_OFFSET ( 1, 0, .AHEAD. ) ;
#161 = EDGE_LOOP ( 'NONE', ( #12 ) ) ;
#162 = AXIS2_PLACEMENT_3D ( 'NONE', #38, #221, #81 ) ;
#163 = CC_DESIGN_APPROVAL ( #57, ( #200 ) ) ;
#164 = APPLICATION_CONTEXT ( 'configuration controlled 3d designs of mechanical parts and assemblies' ) ;
#165 = APPROVAL_STATUS ( 'not_yet_approved' ) ;
#166 = FACE_OUTER_BOUND ( 'NONE', #129, .T. ) ;
#167 = COORDINATED_UNIVERSAL_TIME_OFFSET ( 1, 0, .AHEAD. ) ;
#168 = EDGE_CURVE ( 'NONE', #110, #110, #66, .T. ) ;
#169 = LOCAL_TIME ( 7, 16, 15.00000000000000000, #95 ) ;
#170 = ADVANCED_FACE ( 'NONE', ( #174, #83 ), #121, .T. ) ;
#171 = ADVANCED_FACE ( 'NONE', ( #48 ), #180, .T. ) ;
#172 = EDGE_LOOP ( 'NONE', ( #45 ) ) ;
#173 = CIRCLE ( 'NONE', #147, 0.1250000000000000833 ) ;
#174 = FACE_OUTER_BOUND ( 'NONE', #43, .T. ) ;
#175 = LOCAL_TIME ( 7, 16, 15.00000000000000000, #167 ) ;
#176 = DIRECTION ( 'NONE',  ( -3.491481338843133355E-15, 1.224646799147353207E-16, -1.000000000000000000 ) ) ;
#177 = CC_DESIGN_DATE_AND_TIME_ASSIGNMENT ( #222, #194, ( #158 ) ) ;
#178 = AXIS2_PLACEMENT_3D ( 'NONE', #2, #139, #135 ) ;
#179 = FACE_OUTER_BOUND ( 'NONE', #108, .T. ) ;
#180 = CONICAL_SURFACE ( 'NONE', #130, 0.1249999999999998612, 1.029744258676649649 ) ;
#181 = DIRECTION ( 'NONE',  ( 1.000000000000000000, 0.0000000000000000000, 0.0000000000000000000 ) ) ;
#182 = DIRECTION ( 'NONE',  ( -3.851859888774476085E-31, -1.000000000000000000, -1.084202172485505667E-16 ) ) ;
#183 = PERSON_AND_ORGANIZATION ( #53, #137 ) ;
#184 = DIRECTION ( 'NONE',  ( 3.491481338843133355E-15, -1.224646799147353207E-16, 1.000000000000000000 ) ) ;
#185 = EDGE_LOOP ( 'NONE', ( #120 ) ) ;
#186 = APPROVAL_ROLE ( '' ) ;
#187 = EDGE_CURVE ( 'NONE', #188, #188, #85, .T. ) ;
#188 = VERTEX_POINT ( 'NONE', #27 ) ;
#189 = LOCAL_TIME ( 7, 16, 15.00000000000000000, #191 ) ;
#190 = EDGE_LOOP ( 'NONE', ( #36 ) ) ;
#191 = COORDINATED_UNIVERSAL_TIME_OFFSET ( 1, 0, .AHEAD. ) ;
#192 = PERSON_AND_ORGANIZATION_ROLE ( 'classification_officer' ) ;
#193 = CC_DESIGN_PERSON_AND_ORGANIZATION_ASSIGNMENT ( #220, #47, ( #200 ) ) ;
#194 = DATE_TIME_ROLE ( 'classification_date' ) ;
#195 = PLANE ( 'NONE',  #178 ) ;
#196 = FACE_OUTER_BOUND ( 'NONE', #101, .T. ) ;
#197 = AXIS2_PLACEMENT_3D ( 'NONE', #44, #87, #74 ) ;
#198 = CARTESIAN_POINT ( 'NONE',  ( 1.047444401652940007E-13, 2.999519565323652267E-33, 30.00000000000000000 ) ) ;
#199 = AXIS2_PLACEMENT_3D ( 'NONE', #212, #7, #1 ) ;
#200 = PRODUCT_DEFINITION_FORMATION_WITH_SPECIFIED_SOURCE ( 'ANY', '', #201, .NOT_KNOWN. ) ;
#201 = PRODUCT ( '952657', '952657', '', ( #76 ) ) ;
#202 = FACE_OUTER_BOUND ( 'NONE', #161, .T. ) ;
#203 = CYLINDRICAL_SURFACE ( 'NONE', #59, 0.4999999999999978351 ) ;
#204 = CARTESIAN_POINT ( 'NONE',  ( 0.0000000000000000000, 0.0000000000000000000, 0.0000000000000000000 ) ) ;
#205 = PERSON_AND_ORGANIZATION_ROLE ( 'creator' ) ;
#206 = DIRECTION ( 'NONE',  ( -3.491481338843133355E-15, 1.224646799147353207E-16, -1.000000000000000000 ) ) ;
#207 = EDGE_LOOP ( 'NONE', ( #70 ) ) ;
#208 = CALENDAR_DATE ( 2021, 8, 10 ) ;
#209 = CARTESIAN_POINT ( 'NONE',  ( 2.622367048225601351E-16, -9.198025422822579663E-18, 0.07510757737844579729 ) ) ;
#210 = CC_DESIGN_SECURITY_CLASSIFICATION ( #158, ( #200 ) ) ;
#211 = ORIENTED_EDGE ( 'NONE', *, *, #46, .F. ) ;
#212 = CARTESIAN_POINT ( 'NONE',  ( 1.043952920314096936E-13, -3.661693929450586610E-15, 29.90000000000000213 ) ) ;
#213 = CYLINDRICAL_SURFACE ( 'NONE', #20, 0.1249999999999999722 ) ;
#214 = EDGE_CURVE ( 'NONE', #217, #217, #41, .T. ) ;
#215 = CALENDAR_DATE ( 2021, 8, 10 ) ;
#216 = CARTESIAN_POINT ( 'NONE',  ( 8.377875995183662104E-15, -2.938563327551578251E-16, 2.399519052838353428 ) ) ;
#217 = VERTEX_POINT ( 'NONE', #131 ) ;
#218 = ADVANCED_FACE ( 'NONE', ( #202 ), #143, .T. ) ;
#219 = LOCAL_TIME ( 7, 16, 15.00000000000000000, #160 ) ;
#220 = PERSON_AND_ORGANIZATION ( #53, #137 ) ;
#221 = DIRECTION ( 'NONE',  ( -3.491481338843133355E-15, 1.224646799147353207E-16, -1.000000000000000000 ) ) ;
#222 = DATE_AND_TIME ( #152, #169 ) ;
#223 = ADVANCED_BREP_SHAPE_REPRESENTATION ( '952657', ( #3, #5, #97 ), #22 ) ;
ENDSEC;
END-ISO-10303-21;
