ISO-10303-21;
HEADER;
FILE_DESCRIPTION (( 'STEP AP203' ),
    '1' );
FILE_NAME ('952656.step',
    '2021-10-08T05:16:14',
    ( '' ),
    ( '' ),
    'SwSTEP 2.0',
    'SolidWorks 2019',
    '' );
FILE_SCHEMA (( 'CONFIG_CONTROL_DESIGN' ));
ENDSEC;

DATA;
#1 = DIRECTION ( 'NONE',  ( -4.275831445896958607E-31, -1.000000000000000000, -1.224646799147353207E-16 ) ) ;
#2 = COORDINATED_UNIVERSAL_TIME_OFFSET ( 1, 0, .AHEAD. ) ;
#3 =( GEOMETRIC_REPRESENTATION_CONTEXT ( 3 ) GLOBAL_UNCERTAINTY_ASSIGNED_CONTEXT ( ( #119 ) ) GLOBAL_UNIT_ASSIGNED_CONTEXT ( ( #114, #202, #172 ) ) REPRESENTATION_CONTEXT ( 'NONE', 'WORKASPACE' ) );
#4 = MANIFOLD_SOLID_BREP ( 'Corps-Déplacer/Copier1[1]', #130 ) ;
#5 = MANIFOLD_SOLID_BREP ( 'Corps-Déplacer/Copier1[2]', #108 ) ;
#6 = APPLICATION_CONTEXT ( 'configuration controlled 3d designs of mechanical parts and assemblies' ) ;
#7 = PERSON_AND_ORGANIZATION ( #63, #210 ) ;
#8 = CARTESIAN_POINT ( 'NONE',  ( 8.443027923934870374E-15, -2.961415547930301951E-16, 2.418179306876198975 ) ) ;
#9 = ADVANCED_FACE ( 'NONE', ( #148 ), #96, .F. ) ;
#10 = CARTESIAN_POINT ( 'NONE',  ( 1.047444401652940007E-13, 0.3999999999999953038, 30.00000000000000000 ) ) ;
#11 = CARTESIAN_POINT ( 'NONE',  ( 2.517472366296577041E-16, 0.1199999999999998707, 0.07210327428330795541 ) ) ;
#12 = PERSON_AND_ORGANIZATION ( #63, #210 ) ;
#13 = EDGE_LOOP ( 'NONE', ( #14 ) ) ;
#14 = ORIENTED_EDGE ( 'NONE', *, *, #209, .T. ) ;
#15 = APPROVAL_PERSON_ORGANIZATION ( #195, #178, #206 ) ;
#16 = DIRECTION ( 'NONE',  ( 4.012354050806745156E-31, 1.000000000000000000, 1.129377263005734854E-16 ) ) ;
#17 = EDGE_LOOP ( 'NONE', ( #91 ) ) ;
#18 = ORIENTED_EDGE ( 'NONE', *, *, #79, .T. ) ;
#19 = PRODUCT_RELATED_PRODUCT_CATEGORY ( 'detail', '', ( #164 ) ) ;
#20 = DATE_TIME_ROLE ( 'creation_date' ) ;
#21 = AXIS2_PLACEMENT_3D ( 'NONE', #136, #203, #35 ) ;
#22 = AXIS2_PLACEMENT_3D ( 'NONE', #29, #48, #16 ) ;
#23 = APPROVAL ( #124, 'UNSPECIFIED' ) ;
#24 = CARTESIAN_POINT ( 'NONE',  ( 8.443027923934870374E-15, 0.4999999999999963363, 2.418179306876198975 ) ) ;
#25 = DIRECTION ( 'NONE',  ( -3.491481338843133355E-15, 1.224646799147353207E-16, -1.000000000000000000 ) ) ;
#26 = CARTESIAN_POINT ( 'NONE',  ( 3.491481338843134144E-15, -1.224646799147353454E-16, 1.000000000000000222 ) ) ;
#27 = EDGE_CURVE ( 'NONE', #215, #215, #157, .T. ) ;
#28 = PERSON_AND_ORGANIZATION_ROLE ( 'design_supplier' ) ;
#29 = CARTESIAN_POINT ( 'NONE',  ( 2.517472366296576548E-16, -8.830104405909673087E-18, 0.07210327428330794153 ) ) ;
#30 = CC_DESIGN_SECURITY_CLASSIFICATION ( #140, ( #126 ) ) ;
#31 = CARTESIAN_POINT ( 'NONE',  ( 8.443027923934870374E-15, -2.961415547930301951E-16, 2.418179306876198975 ) ) ;
#32 = PRODUCT_DEFINITION_SHAPE ( 'NONE', 'NONE',  #101 ) ;
#33 = DIRECTION ( 'NONE',  ( -3.491481338843133355E-15, 1.224646799147353207E-16, -1.000000000000000000 ) ) ;
#34 = AXIS2_PLACEMENT_3D ( 'NONE', #132, #217, #1 ) ;
#35 = DIRECTION ( 'NONE',  ( 4.275831445896957731E-31, 1.000000000000000000, 1.224646799147353207E-16 ) ) ;
#36 = APPROVAL_PERSON_ORGANIZATION ( #90, #211, #85 ) ;
#37 = CC_DESIGN_DATE_AND_TIME_ASSIGNMENT ( #89, #20, ( #101 ) ) ;
#38 = ADVANCED_BREP_SHAPE_REPRESENTATION ( '952656', ( #4, #5, #74 ), #3 ) ;
#39 = CONICAL_SURFACE ( 'NONE', #84, 0.4999999999999966693, 0.2617993877991428020 ) ;
#40 = CARTESIAN_POINT ( 'NONE',  ( 3.491481338843134933E-15, 7.228014483236704641E-15, 1.000000000000000444 ) ) ;
#41 = PERSON_AND_ORGANIZATION_ROLE ( 'classification_officer' ) ;
#42 = DIRECTION ( 'NONE',  ( 0.0000000000000000000, 0.0000000000000000000, 1.000000000000000000 ) ) ;
#43 = CALENDAR_DATE ( 2021, 8, 10 ) ;
#44 = LOCAL_TIME ( 7, 16, 14.00000000000000000, #87 ) ;
#45 = EDGE_LOOP ( 'NONE', ( #70 ) ) ;
#46 = CC_DESIGN_PERSON_AND_ORGANIZATION_ASSIGNMENT ( #47, #159, ( #164 ) ) ;
#47 = PERSON_AND_ORGANIZATION ( #63, #210 ) ;
#48 = DIRECTION ( 'NONE',  ( -3.491481338843133355E-15, 1.224646799147353207E-16, -1.000000000000000000 ) ) ;
#49 = DIRECTION ( 'NONE',  ( -3.491481338843133355E-15, 1.224646799147353207E-16, -1.000000000000000000 ) ) ;
#50 = PERSON_AND_ORGANIZATION_ROLE ( 'creator' ) ;
#51 = EDGE_CURVE ( 'NONE', #61, #61, #88, .T. ) ;
#52 = VERTEX_POINT ( 'NONE', #167 ) ;
#53 = DIRECTION ( 'NONE',  ( 4.275831445896958607E-31, 1.000000000000000000, 1.224646799147353207E-16 ) ) ;
#54 = COORDINATED_UNIVERSAL_TIME_OFFSET ( 1, 0, .AHEAD. ) ;
#55 = FACE_OUTER_BOUND ( 'NONE', #13, .T. ) ;
#56 = DIRECTION ( 'NONE',  ( -3.491481338843133355E-15, 1.224646799147353207E-16, -1.000000000000000000 ) ) ;
#57 = LOCAL_TIME ( 7, 16, 14.00000000000000000, #135 ) ;
#58 = FACE_OUTER_BOUND ( 'NONE', #182, .T. ) ;
#59 = AXIS2_PLACEMENT_3D ( 'NONE', #120, #207, #155 ) ;
#60 = CIRCLE ( 'NONE', #76, 0.4999999999999966693 ) ;
#61 = VERTEX_POINT ( 'NONE', #125 ) ;
#62 = LOCAL_TIME ( 7, 16, 14.00000000000000000, #113 ) ;
#63 = PERSON ( 'UNSPECIFIED', 'UNSPECIFIED', 'UNSPECIFIED', ('UNSPECIFIED'), ('UNSPECIFIED'), ('UNSPECIFIED') ) ;
#64 = ADVANCED_FACE ( 'NONE', ( #116, #55 ), #186, .T. ) ;
#65 = CALENDAR_DATE ( 2021, 8, 10 ) ;
#66 = DATE_TIME_ROLE ( 'classification_date' ) ;
#67 = CARTESIAN_POINT ( 'NONE',  ( 0.0000000000000000000, 0.0000000000000000000, 0.0000000000000000000 ) ) ;
#68 = PERSON_AND_ORGANIZATION ( #63, #210 ) ;
#69 = DIRECTION ( 'NONE',  ( 0.0000000000000000000, 1.000000000000000000, 0.0000000000000000000 ) ) ;
#70 = ORIENTED_EDGE ( 'NONE', *, *, #79, .F. ) ;
#71 = DIRECTION ( 'NONE',  ( -3.491481338843133355E-15, 1.224646799147353207E-16, -1.000000000000000000 ) ) ;
#72 = CARTESIAN_POINT ( 'NONE',  ( 1.047444401652940007E-13, 2.999519565323652267E-33, 30.00000000000000000 ) ) ;
#73 = DIRECTION ( 'NONE',  ( 1.000000000000000000, 0.0000000000000000000, 0.0000000000000000000 ) ) ;
#74 = AXIS2_PLACEMENT_3D ( 'NONE', #107, #42, #73 ) ;
#75 = DIRECTION ( 'NONE',  ( 0.0000000000000000000, -1.000000000000000000, 0.0000000000000000000 ) ) ;
#76 = AXIS2_PLACEMENT_3D ( 'NONE', #31, #49, #69 ) ;
#77 = AXIS2_PLACEMENT_3D ( 'NONE', #72, #25, #134 ) ;
#78 = CARTESIAN_POINT ( 'NONE',  ( 1.047444401652940007E-13, -3.673940397442059178E-15, 30.00000000000000000 ) ) ;
#79 = EDGE_CURVE ( 'NONE', #216, #216, #174, .T. ) ;
#80 = ORIENTED_EDGE ( 'NONE', *, *, #27, .T. ) ;
#81 = FACE_OUTER_BOUND ( 'NONE', #152, .T. ) ;
#82 = EDGE_LOOP ( 'NONE', ( #115 ) ) ;
#83 = EDGE_LOOP ( 'NONE', ( #201 ) ) ;
#84 = AXIS2_PLACEMENT_3D ( 'NONE', #8, #145, #75 ) ;
#85 = APPROVAL_ROLE ( '' ) ;
#86 = CALENDAR_DATE ( 2021, 8, 10 ) ;
#87 = COORDINATED_UNIVERSAL_TIME_OFFSET ( 1, 0, .AHEAD. ) ;
#88 = CIRCLE ( 'NONE', #147, 0.1200000000000000094 ) ;
#89 = DATE_AND_TIME ( #65, #62 ) ;
#90 = PERSON_AND_ORGANIZATION ( #63, #210 ) ;
#91 = ORIENTED_EDGE ( 'NONE', *, *, #209, .F. ) ;
#92 = DIRECTION ( 'NONE',  ( 0.0000000000000000000, 1.000000000000000000, 0.0000000000000000000 ) ) ;
#93 = CARTESIAN_POINT ( 'NONE',  ( 1.043952920314096936E-13, -3.661693929450586610E-15, 29.90000000000000213 ) ) ;
#94 = AXIS2_PLACEMENT_3D ( 'NONE', #93, #106, #92 ) ;
#95 = DATE_AND_TIME ( #143, #223 ) ;
#96 = PLANE ( 'NONE',  #34 ) ;
#97 = EDGE_LOOP ( 'NONE', ( #80 ) ) ;
#98 = FACE_OUTER_BOUND ( 'NONE', #17, .T. ) ;
#99 = CARTESIAN_POINT ( 'NONE',  ( 1.047444401652940007E-13, -3.673940397442059178E-15, 30.00000000000000000 ) ) ;
#100 = LOCAL_TIME ( 7, 16, 14.00000000000000000, #54 ) ;
#101 = PRODUCT_DEFINITION ( 'UNKNOWN', '', #126, #176 ) ;
#102 = APPROVAL_DATE_TIME ( #208, #211 ) ;
#103 = DIRECTION ( 'NONE',  ( 3.491481338843133355E-15, -1.224646799147353207E-16, 1.000000000000000000 ) ) ;
#104 = APPLICATION_PROTOCOL_DEFINITION ( 'international standard', 'config_control_design', 1994, #133 ) ;
#105 = EDGE_CURVE ( 'NONE', #194, #194, #60, .T. ) ;
#106 = DIRECTION ( 'NONE',  ( -3.491481338843133355E-15, 1.224646799147353207E-16, -1.000000000000000000 ) ) ;
#107 = CARTESIAN_POINT ( 'NONE',  ( 0.0000000000000000000, 0.0000000000000000000, 0.0000000000000000000 ) ) ;
#108 = CLOSED_SHELL ( 'NONE', ( #170, #165, #180 ) ) ;
#109 = DATE_AND_TIME ( #162, #100 ) ;
#110 = ORIENTED_EDGE ( 'NONE', *, *, #105, .F. ) ;
#111 = ADVANCED_FACE ( 'NONE', ( #112 ), #184, .F. ) ;
#112 = FACE_OUTER_BOUND ( 'NONE', #45, .T. ) ;
#113 = COORDINATED_UNIVERSAL_TIME_OFFSET ( 1, 0, .AHEAD. ) ;
#114 =( LENGTH_UNIT ( ) NAMED_UNIT ( * ) SI_UNIT ( .MILLI., .METRE. ) );
#115 = ORIENTED_EDGE ( 'NONE', *, *, #105, .T. ) ;
#116 = FACE_OUTER_BOUND ( 'NONE', #222, .T. ) ;
#117 = EDGE_LOOP ( 'NONE', ( #18 ) ) ;
#118 = SECURITY_CLASSIFICATION_LEVEL ( 'unclassified' ) ;
#119 = UNCERTAINTY_MEASURE_WITH_UNIT (LENGTH_MEASURE( 1.000000000000000082E-05 ), #114, 'distance_accuracy_value', 'NONE');
#120 = CARTESIAN_POINT ( 'NONE',  ( 2.517472366296576548E-16, -8.830104405909673087E-18, 0.07210327428330794153 ) ) ;
#121 = CC_DESIGN_APPROVAL ( #178, ( #140 ) ) ;
#122 = MECHANICAL_CONTEXT ( 'NONE', #6, 'mechanical' ) ;
#123 = APPROVAL_STATUS ( 'not_yet_approved' ) ;
#124 = APPROVAL_STATUS ( 'not_yet_approved' ) ;
#125 = CARTESIAN_POINT ( 'NONE',  ( 3.491481338843134144E-15, 0.1199999999999998845, 1.000000000000000222 ) ) ;
#126 = PRODUCT_DEFINITION_FORMATION_WITH_SPECIFIED_SOURCE ( 'ANY', '', #164, .NOT_KNOWN. ) ;
#127 = CONICAL_SURFACE ( 'NONE', #128, 0.3999999999999989675, 0.7853981633974694843 ) ;
#128 = AXIS2_PLACEMENT_3D ( 'NONE', #99, #169, #138 ) ;
#129 = CARTESIAN_POINT ( 'NONE',  ( 3.491481338843134144E-15, 0.1199999999999998845, 1.000000000000000222 ) ) ;
#130 = CLOSED_SHELL ( 'NONE', ( #9, #214, #64, #141, #111 ) ) ;
#131 = CC_DESIGN_PERSON_AND_ORGANIZATION_ASSIGNMENT ( #12, #28, ( #126 ) ) ;
#132 = CARTESIAN_POINT ( 'NONE',  ( 3.491481338843134933E-15, 7.228014483236704641E-15, 1.000000000000000444 ) ) ;
#133 = APPLICATION_CONTEXT ( 'configuration controlled 3d designs of mechanical parts and assemblies' ) ;
#134 = DIRECTION ( 'NONE',  ( 4.275831445896958607E-31, 1.000000000000000000, 1.224646799147353207E-16 ) ) ;
#135 = COORDINATED_UNIVERSAL_TIME_OFFSET ( 1, 0, .AHEAD. ) ;
#136 = CARTESIAN_POINT ( 'NONE',  ( 0.0000000000000000000, 0.0000000000000000000, 0.0000000000000000000 ) ) ;
#137 = EDGE_LOOP ( 'NONE', ( #168 ) ) ;
#138 = DIRECTION ( 'NONE',  ( 0.0000000000000000000, 1.000000000000000000, 0.0000000000000000000 ) ) ;
#139 = FACE_OUTER_BOUND ( 'NONE', #137, .T. ) ;
#140 = SECURITY_CLASSIFICATION ( '', '', #118 ) ;
#141 = ADVANCED_FACE ( 'NONE', ( #98, #185 ), #127, .T. ) ;
#142 = APPROVAL_PERSON_ORGANIZATION ( #7, #23, #187 ) ;
#143 = CALENDAR_DATE ( 2021, 8, 10 ) ;
#144 = CC_DESIGN_PERSON_AND_ORGANIZATION_ASSIGNMENT ( #177, #154, ( #126 ) ) ;
#145 = DIRECTION ( 'NONE',  ( 3.491481338843133355E-15, -1.224646799147353207E-16, 1.000000000000000000 ) ) ;
#146 = DIRECTION ( 'NONE',  ( 0.0000000000000000000, 1.000000000000000000, 0.0000000000000000000 ) ) ;
#147 = AXIS2_PLACEMENT_3D ( 'NONE', #26, #71, #146 ) ;
#148 = FACE_OUTER_BOUND ( 'NONE', #204, .T. ) ;
#149 = FACE_OUTER_BOUND ( 'NONE', #97, .T. ) ;
#150 = DATE_AND_TIME ( #43, #44 ) ;
#151 = ORIENTED_EDGE ( 'NONE', *, *, #51, .T. ) ;
#152 = EDGE_LOOP ( 'NONE', ( #163 ) ) ;
#153 = AXIS2_PLACEMENT_3D ( 'NONE', #78, #200, #166 ) ;
#154 = PERSON_AND_ORGANIZATION_ROLE ( 'creator' ) ;
#155 = DIRECTION ( 'NONE',  ( -4.012354050806745156E-31, -1.000000000000000000, -1.129377263005734854E-16 ) ) ;
#156 = EDGE_CURVE ( 'NONE', #160, #160, #189, .T. ) ;
#157 = CIRCLE ( 'NONE', #205, 0.1200000000000000094 ) ;
#158 = CONICAL_SURFACE ( 'NONE', #59, 0.1199999999999998845, 1.029744258676649871 ) ;
#159 = PERSON_AND_ORGANIZATION_ROLE ( 'design_owner' ) ;
#160 = VERTEX_POINT ( 'NONE', #11 ) ;
#161 = CARTESIAN_POINT ( 'NONE',  ( 3.491481338843134144E-15, -1.224646799147353454E-16, 1.000000000000000222 ) ) ;
#162 = CALENDAR_DATE ( 2021, 8, 10 ) ;
#163 = ORIENTED_EDGE ( 'NONE', *, *, #156, .F. ) ;
#164 = PRODUCT ( '952656', '952656', '', ( #122 ) ) ;
#165 = ADVANCED_FACE ( 'NONE', ( #81, #149 ), #221, .T. ) ;
#166 = DIRECTION ( 'NONE',  ( 0.0000000000000000000, 1.000000000000000000, 0.0000000000000000000 ) ) ;
#167 = CARTESIAN_POINT ( 'NONE',  ( 1.043952920314096936E-13, 0.4999999999999954481, 29.90000000000000213 ) ) ;
#168 = ORIENTED_EDGE ( 'NONE', *, *, #156, .T. ) ;
#169 = DIRECTION ( 'NONE',  ( -3.491481338843133355E-15, 1.224646799147353207E-16, -1.000000000000000000 ) ) ;
#170 = ADVANCED_FACE ( 'NONE', ( #139 ), #158, .T. ) ;
#171 = CIRCLE ( 'NONE', #94, 0.4999999999999991673 ) ;
#172 =( NAMED_UNIT ( * ) SI_UNIT ( $, .STERADIAN. ) SOLID_ANGLE_UNIT ( ) );
#173 = DIRECTION ( 'NONE',  ( -4.275831445896958607E-31, -1.000000000000000000, -1.224646799147353207E-16 ) ) ;
#174 = CIRCLE ( 'NONE', #153, 0.3999999999999989675 ) ;
#175 = PLANE ( 'NONE',  #191 ) ;
#176 = DESIGN_CONTEXT ( 'detailed design', #133, 'design' ) ;
#177 = PERSON_AND_ORGANIZATION ( #63, #210 ) ;
#178 = APPROVAL ( #218, 'UNSPECIFIED' ) ;
#179 = APPROVAL_DATE_TIME ( #150, #178 ) ;
#180 = ADVANCED_FACE ( 'NONE', ( #58 ), #175, .T. ) ;
#181 = FACE_BOUND ( 'NONE', #83, .T. ) ;
#182 = EDGE_LOOP ( 'NONE', ( #193 ) ) ;
#183 = APPROVAL_DATE_TIME ( #95, #23 ) ;
#184 = PLANE ( 'NONE',  #77 ) ;
#185 = FACE_BOUND ( 'NONE', #117, .T. ) ;
#186 = CYLINDRICAL_SURFACE ( 'NONE', #212, 0.4999999999999978351 ) ;
#187 = APPROVAL_ROLE ( '' ) ;
#188 = PERSON_AND_ORGANIZATION ( #63, #210 ) ;
#189 = CIRCLE ( 'NONE', #22, 0.1199999999999998845 ) ;
#190 = CC_DESIGN_PERSON_AND_ORGANIZATION_ASSIGNMENT ( #68, #50, ( #101 ) ) ;
#191 = AXIS2_PLACEMENT_3D ( 'NONE', #40, #103, #173 ) ;
#192 = CC_DESIGN_DATE_AND_TIME_ASSIGNMENT ( #109, #66, ( #140 ) ) ;
#193 = ORIENTED_EDGE ( 'NONE', *, *, #27, .F. ) ;
#194 = VERTEX_POINT ( 'NONE', #24 ) ;
#195 = PERSON_AND_ORGANIZATION ( #63, #210 ) ;
#196 = FACE_OUTER_BOUND ( 'NONE', #82, .T. ) ;
#197 = APPLICATION_PROTOCOL_DEFINITION ( 'international standard', 'config_control_design', 1994, #6 ) ;
#198 = CC_DESIGN_APPROVAL ( #23, ( #101 ) ) ;
#199 = CC_DESIGN_APPROVAL ( #211, ( #126 ) ) ;
#200 = DIRECTION ( 'NONE',  ( -3.491481338843133355E-15, 1.224646799147353207E-16, -1.000000000000000000 ) ) ;
#201 = ORIENTED_EDGE ( 'NONE', *, *, #51, .F. ) ;
#202 =( NAMED_UNIT ( * ) PLANE_ANGLE_UNIT ( ) SI_UNIT ( $, .RADIAN. ) );
#203 = DIRECTION ( 'NONE',  ( -3.491481338843133355E-15, 1.224646799147353207E-16, -1.000000000000000000 ) ) ;
#204 = EDGE_LOOP ( 'NONE', ( #151 ) ) ;
#205 = AXIS2_PLACEMENT_3D ( 'NONE', #161, #56, #220 ) ;
#206 = APPROVAL_ROLE ( '' ) ;
#207 = DIRECTION ( 'NONE',  ( 3.491481338843133355E-15, -1.224646799147353207E-16, 1.000000000000000000 ) ) ;
#208 = DATE_AND_TIME ( #86, #57 ) ;
#209 = EDGE_CURVE ( 'NONE', #52, #52, #171, .T. ) ;
#210 = ORGANIZATION ( 'UNSPECIFIED', 'UNSPECIFIED', '' ) ;
#211 = APPROVAL ( #123, 'UNSPECIFIED' ) ;
#212 = AXIS2_PLACEMENT_3D ( 'NONE', #67, #33, #53 ) ;
#213 = SHAPE_DEFINITION_REPRESENTATION ( #32, #38 ) ;
#214 = ADVANCED_FACE ( 'NONE', ( #181, #196 ), #39, .T. ) ;
#215 = VERTEX_POINT ( 'NONE', #129 ) ;
#216 = VERTEX_POINT ( 'NONE', #10 ) ;
#217 = DIRECTION ( 'NONE',  ( 3.491481338843133355E-15, -1.224646799147353207E-16, 1.000000000000000000 ) ) ;
#218 = APPROVAL_STATUS ( 'not_yet_approved' ) ;
#219 = CC_DESIGN_PERSON_AND_ORGANIZATION_ASSIGNMENT ( #188, #41, ( #140 ) ) ;
#220 = DIRECTION ( 'NONE',  ( 0.0000000000000000000, 1.000000000000000000, 0.0000000000000000000 ) ) ;
#221 = CYLINDRICAL_SURFACE ( 'NONE', #21, 0.1199999999999999400 ) ;
#222 = EDGE_LOOP ( 'NONE', ( #110 ) ) ;
#223 = LOCAL_TIME ( 7, 16, 14.00000000000000000, #2 ) ;
ENDSEC;
END-ISO-10303-21;
