ISO-10303-21;
HEADER;
FILE_DESCRIPTION (( 'STEP AP203' ),
    '1' );
FILE_NAME ('952655.step',
    '2021-10-08T05:16:14',
    ( '' ),
    ( '' ),
    'SwSTEP 2.0',
    'SolidWorks 2019',
    '' );
FILE_SCHEMA (( 'CONFIG_CONTROL_DESIGN' ));
ENDSEC;

DATA;
#1 = VERTEX_POINT ( 'NONE', #135 ) ;
#2 = APPROVAL_ROLE ( '' ) ;
#3 = EDGE_LOOP ( 'NONE', ( #87 ) ) ;
#4 = PRODUCT_DEFINITION ( 'UNKNOWN', '', #82, #124 ) ;
#5 = ORIENTED_EDGE ( 'NONE', *, *, #78, .F. ) ;
#6 = AXIS2_PLACEMENT_3D ( 'NONE', #53, #149, #101 ) ;
#7 = DIRECTION ( 'NONE',  ( -3.491481338843133355E-15, 1.224646799147353207E-16, -1.000000000000000000 ) ) ;
#8 = DIRECTION ( 'NONE',  ( -3.491481338843133355E-15, 1.224646799147353207E-16, -1.000000000000000000 ) ) ;
#9 = EDGE_CURVE ( 'NONE', #27, #27, #31, .T. ) ;
#10 = FACE_BOUND ( 'NONE', #20, .T. ) ;
#11 = CARTESIAN_POINT ( 'NONE',  ( 1.047444401652940007E-13, 0.3999999999999953038, 30.00000000000000000 ) ) ;
#12 = AXIS2_PLACEMENT_3D ( 'NONE', #23, #120, #164 ) ;
#13 = DIRECTION ( 'NONE',  ( 4.275831445896958607E-31, 1.000000000000000000, 1.224646799147353207E-16 ) ) ;
#14 = CARTESIAN_POINT ( 'NONE',  ( 0.0000000000000000000, 0.0000000000000000000, 0.0000000000000000000 ) ) ;
#15 = FACE_OUTER_BOUND ( 'NONE', #145, .T. ) ;
#16 = APPROVAL_STATUS ( 'not_yet_approved' ) ;
#17 = ORIENTED_EDGE ( 'NONE', *, *, #102, .F. ) ;
#18 = PERSON_AND_ORGANIZATION ( #83, #35 ) ;
#19 = ADVANCED_BREP_SHAPE_REPRESENTATION ( '952655', ( #217, #61, #186 ), #122 ) ;
#20 = EDGE_LOOP ( 'NONE', ( #5 ) ) ;
#21 = LOCAL_TIME ( 7, 16, 14.00000000000000000, #76 ) ;
#22 = CARTESIAN_POINT ( 'NONE',  ( 1.047444401652940007E-13, 2.999519565323652267E-33, 30.00000000000000000 ) ) ;
#23 = CARTESIAN_POINT ( 'NONE',  ( 3.491481338843132566E-15, -1.224646799147352961E-16, 0.9999999999999997780 ) ) ;
#24 = PLANE ( 'NONE',  #40 ) ;
#25 = APPROVAL ( #50, 'UNSPECIFIED' ) ;
#26 = SECURITY_CLASSIFICATION_LEVEL ( 'unclassified' ) ;
#27 = VERTEX_POINT ( 'NONE', #11 ) ;
#28 = EDGE_CURVE ( 'NONE', #185, #185, #114, .T. ) ;
#29 = PERSON_AND_ORGANIZATION ( #83, #35 ) ;
#30 = SECURITY_CLASSIFICATION ( '', '', #26 ) ;
#31 = CIRCLE ( 'NONE', #178, 0.3999999999999989675 ) ;
#32 = EDGE_LOOP ( 'NONE', ( #174 ) ) ;
#33 = EDGE_LOOP ( 'NONE', ( #85 ) ) ;
#34 = CC_DESIGN_DATE_AND_TIME_ASSIGNMENT ( #189, #119, ( #4 ) ) ;
#35 = ORGANIZATION ( 'UNSPECIFIED', 'UNSPECIFIED', '' ) ;
#36 = EDGE_LOOP ( 'NONE', ( #67 ) ) ;
#37 = CARTESIAN_POINT ( 'NONE',  ( 3.491481338843132566E-15, -1.224646799147352961E-16, 0.9999999999999997780 ) ) ;
#38 = CIRCLE ( 'NONE', #59, 0.4999999999999966693 ) ;
#39 = FACE_OUTER_BOUND ( 'NONE', #3, .T. ) ;
#40 = AXIS2_PLACEMENT_3D ( 'NONE', #196, #180, #91 ) ;
#41 = DIRECTION ( 'NONE',  ( 4.275831445896958607E-31, 1.000000000000000000, 1.224646799147353207E-16 ) ) ;
#42 = APPROVAL_PERSON_ORGANIZATION ( #88, #70, #2 ) ;
#43 = PERSON_AND_ORGANIZATION_ROLE ( 'classification_officer' ) ;
#44 = CALENDAR_DATE ( 2021, 8, 10 ) ;
#45 = DATE_TIME_ROLE ( 'classification_date' ) ;
#46 = CARTESIAN_POINT ( 'NONE',  ( 2.412577684367553223E-16, 0.1149999999999998801, 0.06909897118817012740 ) ) ;
#47 = EDGE_CURVE ( 'NONE', #80, #80, #98, .T. ) ;
#48 = COORDINATED_UNIVERSAL_TIME_OFFSET ( 1, 0, .AHEAD. ) ;
#49 = CARTESIAN_POINT ( 'NONE',  ( 3.491481338843132566E-15, 0.1149999999999998385, 0.9999999999999997780 ) ) ;
#50 = APPROVAL_STATUS ( 'not_yet_approved' ) ;
#51 = DIRECTION ( 'NONE',  ( 0.0000000000000000000, 1.000000000000000000, 0.0000000000000000000 ) ) ;
#52 = LOCAL_TIME ( 7, 16, 14.00000000000000000, #96 ) ;
#53 = CARTESIAN_POINT ( 'NONE',  ( 8.508179852686078644E-15, -2.984267768309025159E-16, 2.436839560914043634 ) ) ;
#54 = APPROVAL_STATUS ( 'not_yet_approved' ) ;
#55 = PLANE ( 'NONE',  #108 ) ;
#56 = FACE_OUTER_BOUND ( 'NONE', #191, .T. ) ;
#57 = DIRECTION ( 'NONE',  ( -4.186804226928777325E-31, -1.000000000000000000, -1.178480622266853696E-16 ) ) ;
#58 = ADVANCED_FACE ( 'NONE', ( #39 ), #55, .F. ) ;
#59 = AXIS2_PLACEMENT_3D ( 'NONE', #216, #90, #93 ) ;
#60 = FACE_OUTER_BOUND ( 'NONE', #68, .T. ) ;
#61 = MANIFOLD_SOLID_BREP ( 'Corps-Déplacer/Copier1[2]', #207 ) ;
#62 = APPLICATION_PROTOCOL_DEFINITION ( 'international standard', 'config_control_design', 1994, #130 ) ;
#63 = CARTESIAN_POINT ( 'NONE',  ( 1.047444401652940007E-13, -3.673940397442059178E-15, 30.00000000000000000 ) ) ;
#64 = APPROVAL_PERSON_ORGANIZATION ( #132, #25, #202 ) ;
#65 = DIRECTION ( 'NONE',  ( -3.491481338843133355E-15, 1.224646799147353207E-16, -1.000000000000000000 ) ) ;
#66 =( NAMED_UNIT ( * ) SI_UNIT ( $, .STERADIAN. ) SOLID_ANGLE_UNIT ( ) );
#67 = ORIENTED_EDGE ( 'NONE', *, *, #139, .F. ) ;
#68 = EDGE_LOOP ( 'NONE', ( #192 ) ) ;
#69 = ADVANCED_FACE ( 'NONE', ( #209 ), #106, .T. ) ;
#70 = APPROVAL ( #54, 'UNSPECIFIED' ) ;
#71 = AXIS2_PLACEMENT_3D ( 'NONE', #73, #104, #146 ) ;
#72 = ORIENTED_EDGE ( 'NONE', *, *, #139, .T. ) ;
#73 = CARTESIAN_POINT ( 'NONE',  ( 3.491481338843134933E-15, 7.542275982507863655E-15, 1.000000000000000444 ) ) ;
#74 = DIRECTION ( 'NONE',  ( 0.0000000000000000000, 1.000000000000000000, 0.0000000000000000000 ) ) ;
#75 = FACE_OUTER_BOUND ( 'NONE', #140, .T. ) ;
#76 = COORDINATED_UNIVERSAL_TIME_OFFSET ( 1, 0, .AHEAD. ) ;
#77 = DIRECTION ( 'NONE',  ( -3.491481338843133355E-15, 1.224646799147353207E-16, -1.000000000000000000 ) ) ;
#78 = EDGE_CURVE ( 'NONE', #221, #221, #203, .T. ) ;
#79 = PRODUCT_RELATED_PRODUCT_CATEGORY ( 'detail', '', ( #147 ) ) ;
#80 = VERTEX_POINT ( 'NONE', #219 ) ;
#81 = CYLINDRICAL_SURFACE ( 'NONE', #190, 0.1149999999999999217 ) ;
#82 = PRODUCT_DEFINITION_FORMATION_WITH_SPECIFIED_SOURCE ( 'ANY', '', #147, .NOT_KNOWN. ) ;
#83 = PERSON ( 'UNSPECIFIED', 'UNSPECIFIED', 'UNSPECIFIED', ('UNSPECIFIED'), ('UNSPECIFIED'), ('UNSPECIFIED') ) ;
#84 = PERSON_AND_ORGANIZATION_ROLE ( 'creator' ) ;
#85 = ORIENTED_EDGE ( 'NONE', *, *, #78, .T. ) ;
#86 = AXIS2_PLACEMENT_3D ( 'NONE', #63, #134, #150 ) ;
#87 = ORIENTED_EDGE ( 'NONE', *, *, #9, .F. ) ;
#88 = PERSON_AND_ORGANIZATION ( #83, #35 ) ;
#89 = CONICAL_SURFACE ( 'NONE', #6, 0.4999999999999966693, 0.2617993877991427465 ) ;
#90 = DIRECTION ( 'NONE',  ( -3.491481338843133355E-15, 1.224646799147353207E-16, -1.000000000000000000 ) ) ;
#91 = DIRECTION ( 'NONE',  ( -4.275831445896958607E-31, -1.000000000000000000, -1.224646799147353207E-16 ) ) ;
#92 = DATE_AND_TIME ( #107, #126 ) ;
#93 = DIRECTION ( 'NONE',  ( 0.0000000000000000000, 1.000000000000000000, 0.0000000000000000000 ) ) ;
#94 = APPROVAL_DATE_TIME ( #92, #136 ) ;
#95 = AXIS2_PLACEMENT_3D ( 'NONE', #118, #194, #99 ) ;
#96 = COORDINATED_UNIVERSAL_TIME_OFFSET ( 1, 0, .AHEAD. ) ;
#97 = MECHANICAL_CONTEXT ( 'NONE', #141, 'mechanical' ) ;
#98 = CIRCLE ( 'NONE', #161, 0.4999999999999991673 ) ;
#99 = DIRECTION ( 'NONE',  ( 4.186804226928777325E-31, 1.000000000000000000, 1.178480622266853696E-16 ) ) ;
#100 = ORIENTED_EDGE ( 'NONE', *, *, #47, .F. ) ;
#101 = DIRECTION ( 'NONE',  ( 0.0000000000000000000, -1.000000000000000000, 0.0000000000000000000 ) ) ;
#102 = EDGE_CURVE ( 'NONE', #1, #1, #103, .T. ) ;
#103 = CIRCLE ( 'NONE', #12, 0.1149999999999999634 ) ;
#104 = DIRECTION ( 'NONE',  ( 3.491481338843133355E-15, -1.224646799147353207E-16, 1.000000000000000000 ) ) ;
#105 = ADVANCED_FACE ( 'NONE', ( #121 ), #24, .F. ) ;
#106 = PLANE ( 'NONE',  #71 ) ;
#107 = CALENDAR_DATE ( 2021, 8, 10 ) ;
#108 = AXIS2_PLACEMENT_3D ( 'NONE', #22, #7, #41 ) ;
#109 = PERSON_AND_ORGANIZATION ( #83, #35 ) ;
#110 =( LENGTH_UNIT ( ) NAMED_UNIT ( * ) SI_UNIT ( .MILLI., .METRE. ) );
#111 = ADVANCED_FACE ( 'NONE', ( #148 ), #116, .T. ) ;
#112 = CARTESIAN_POINT ( 'NONE',  ( 0.0000000000000000000, 0.0000000000000000000, 0.0000000000000000000 ) ) ;
#113 = LOCAL_TIME ( 7, 16, 14.00000000000000000, #223 ) ;
#114 = CIRCLE ( 'NONE', #95, 0.1149999999999998940 ) ;
#115 = DATE_AND_TIME ( #44, #154 ) ;
#116 = CONICAL_SURFACE ( 'NONE', #138, 0.1149999999999998940, 1.029744258676649871 ) ;
#117 = CC_DESIGN_PERSON_AND_ORGANIZATION_ASSIGNMENT ( #171, #84, ( #82 ) ) ;
#118 = CARTESIAN_POINT ( 'NONE',  ( 2.412577684367552730E-16, -8.462183388996769592E-18, 0.06909897118817011352 ) ) ;
#119 = DATE_TIME_ROLE ( 'creation_date' ) ;
#120 = DIRECTION ( 'NONE',  ( -3.491481338843133355E-15, 1.224646799147353207E-16, -1.000000000000000000 ) ) ;
#121 = FACE_OUTER_BOUND ( 'NONE', #33, .T. ) ;
#122 =( GEOMETRIC_REPRESENTATION_CONTEXT ( 3 ) GLOBAL_UNCERTAINTY_ASSIGNED_CONTEXT ( ( #213 ) ) GLOBAL_UNIT_ASSIGNED_CONTEXT ( ( #110, #188, #66 ) ) REPRESENTATION_CONTEXT ( 'NONE', 'WORKASPACE' ) );
#123 = CARTESIAN_POINT ( 'NONE',  ( 0.0000000000000000000, 0.0000000000000000000, 0.0000000000000000000 ) ) ;
#124 = DESIGN_CONTEXT ( 'detailed design', #130, 'design' ) ;
#125 = CARTESIAN_POINT ( 'NONE',  ( 1.043952920314096936E-13, -3.661693929450586610E-15, 29.90000000000000213 ) ) ;
#126 = LOCAL_TIME ( 7, 16, 14.00000000000000000, #212 ) ;
#127 = CC_DESIGN_APPROVAL ( #136, ( #30 ) ) ;
#128 = APPROVAL_DATE_TIME ( #182, #70 ) ;
#129 = CLOSED_SHELL ( 'NONE', ( #105, #172, #181, #208, #58 ) ) ;
#130 = APPLICATION_CONTEXT ( 'configuration controlled 3d designs of mechanical parts and assemblies' ) ;
#131 = DATE_AND_TIME ( #183, #21 ) ;
#132 = PERSON_AND_ORGANIZATION ( #83, #35 ) ;
#133 = AXIS2_PLACEMENT_3D ( 'NONE', #123, #77, #204 ) ;
#134 = DIRECTION ( 'NONE',  ( -3.491481338843133355E-15, 1.224646799147353207E-16, -1.000000000000000000 ) ) ;
#135 = CARTESIAN_POINT ( 'NONE',  ( 3.491481338843132566E-15, 0.1149999999999998385, 0.9999999999999997780 ) ) ;
#136 = APPROVAL ( #16, 'UNSPECIFIED' ) ;
#137 = PERSON_AND_ORGANIZATION_ROLE ( 'design_owner' ) ;
#138 = AXIS2_PLACEMENT_3D ( 'NONE', #199, #211, #57 ) ;
#139 = EDGE_CURVE ( 'NONE', #187, #187, #38, .T. ) ;
#140 = EDGE_LOOP ( 'NONE', ( #72 ) ) ;
#141 = APPLICATION_CONTEXT ( 'configuration controlled 3d designs of mechanical parts and assemblies' ) ;
#142 = DIRECTION ( 'NONE',  ( -3.491481338843133355E-15, 1.224646799147353207E-16, -1.000000000000000000 ) ) ;
#143 = EDGE_LOOP ( 'NONE', ( #17 ) ) ;
#144 = CC_DESIGN_APPROVAL ( #25, ( #4 ) ) ;
#145 = EDGE_LOOP ( 'NONE', ( #157 ) ) ;
#146 = DIRECTION ( 'NONE',  ( -4.275831445896958607E-31, -1.000000000000000000, -1.224646799147353207E-16 ) ) ;
#147 = PRODUCT ( '952655', '952655', '', ( #97 ) ) ;
#148 = FACE_OUTER_BOUND ( 'NONE', #32, .T. ) ;
#149 = DIRECTION ( 'NONE',  ( 3.491481338843133355E-15, -1.224646799147353207E-16, 1.000000000000000000 ) ) ;
#150 = DIRECTION ( 'NONE',  ( 0.0000000000000000000, 1.000000000000000000, 0.0000000000000000000 ) ) ;
#151 = APPROVAL_ROLE ( '' ) ;
#152 = DIRECTION ( 'NONE',  ( 1.000000000000000000, 0.0000000000000000000, 0.0000000000000000000 ) ) ;
#153 = FACE_BOUND ( 'NONE', #159, .T. ) ;
#154 = LOCAL_TIME ( 7, 16, 14.00000000000000000, #48 ) ;
#155 = PERSON_AND_ORGANIZATION ( #83, #35 ) ;
#156 = FACE_OUTER_BOUND ( 'NONE', #173, .T. ) ;
#157 = ORIENTED_EDGE ( 'NONE', *, *, #102, .T. ) ;
#158 = CARTESIAN_POINT ( 'NONE',  ( 1.047444401652940007E-13, -3.673940397442059178E-15, 30.00000000000000000 ) ) ;
#159 = EDGE_LOOP ( 'NONE', ( #160 ) ) ;
#160 = ORIENTED_EDGE ( 'NONE', *, *, #9, .T. ) ;
#161 = AXIS2_PLACEMENT_3D ( 'NONE', #125, #179, #195 ) ;
#162 = CYLINDRICAL_SURFACE ( 'NONE', #133, 0.4999999999999978351 ) ;
#163 = SHAPE_DEFINITION_REPRESENTATION ( #215, #19 ) ;
#164 = DIRECTION ( 'NONE',  ( 0.0000000000000000000, 1.000000000000000000, 0.0000000000000000000 ) ) ;
#165 = CC_DESIGN_PERSON_AND_ORGANIZATION_ASSIGNMENT ( #201, #137, ( #147 ) ) ;
#166 = CALENDAR_DATE ( 2021, 8, 10 ) ;
#167 = CARTESIAN_POINT ( 'NONE',  ( 8.508179852686078644E-15, 0.4999999999999963363, 2.436839560914043634 ) ) ;
#168 = CALENDAR_DATE ( 2021, 8, 10 ) ;
#169 = APPROVAL_DATE_TIME ( #115, #25 ) ;
#170 = CC_DESIGN_APPROVAL ( #70, ( #82 ) ) ;
#171 = PERSON_AND_ORGANIZATION ( #83, #35 ) ;
#172 = ADVANCED_FACE ( 'NONE', ( #10, #75 ), #89, .T. ) ;
#173 = EDGE_LOOP ( 'NONE', ( #100 ) ) ;
#174 = ORIENTED_EDGE ( 'NONE', *, *, #28, .T. ) ;
#175 = ORIENTED_EDGE ( 'NONE', *, *, #47, .T. ) ;
#176 = CC_DESIGN_DATE_AND_TIME_ASSIGNMENT ( #131, #45, ( #30 ) ) ;
#177 = FACE_OUTER_BOUND ( 'NONE', #36, .T. ) ;
#178 = AXIS2_PLACEMENT_3D ( 'NONE', #158, #142, #51 ) ;
#179 = DIRECTION ( 'NONE',  ( -3.491481338843133355E-15, 1.224646799147353207E-16, -1.000000000000000000 ) ) ;
#180 = DIRECTION ( 'NONE',  ( 3.491481338843133355E-15, -1.224646799147353207E-16, 1.000000000000000000 ) ) ;
#181 = ADVANCED_FACE ( 'NONE', ( #177, #56 ), #162, .T. ) ;
#182 = DATE_AND_TIME ( #166, #113 ) ;
#183 = CALENDAR_DATE ( 2021, 8, 10 ) ;
#184 = PERSON_AND_ORGANIZATION_ROLE ( 'creator' ) ;
#185 = VERTEX_POINT ( 'NONE', #46 ) ;
#186 = AXIS2_PLACEMENT_3D ( 'NONE', #112, #205, #152 ) ;
#187 = VERTEX_POINT ( 'NONE', #167 ) ;
#188 =( NAMED_UNIT ( * ) PLANE_ANGLE_UNIT ( ) SI_UNIT ( $, .RADIAN. ) );
#189 = DATE_AND_TIME ( #168, #52 ) ;
#190 = AXIS2_PLACEMENT_3D ( 'NONE', #14, #65, #13 ) ;
#191 = EDGE_LOOP ( 'NONE', ( #175 ) ) ;
#192 = ORIENTED_EDGE ( 'NONE', *, *, #28, .F. ) ;
#193 = APPROVAL_PERSON_ORGANIZATION ( #18, #136, #151 ) ;
#194 = DIRECTION ( 'NONE',  ( -3.491481338843133355E-15, 1.224646799147353207E-16, -1.000000000000000000 ) ) ;
#195 = DIRECTION ( 'NONE',  ( 0.0000000000000000000, 1.000000000000000000, 0.0000000000000000000 ) ) ;
#196 = CARTESIAN_POINT ( 'NONE',  ( 3.491481338843134933E-15, 7.542275982507863655E-15, 1.000000000000000444 ) ) ;
#197 = CONICAL_SURFACE ( 'NONE', #86, 0.3999999999999989675, 0.7853981633974694843 ) ;
#198 = CC_DESIGN_PERSON_AND_ORGANIZATION_ASSIGNMENT ( #29, #184, ( #4 ) ) ;
#199 = CARTESIAN_POINT ( 'NONE',  ( 2.412577684367552730E-16, -8.462183388996769592E-18, 0.06909897118817011352 ) ) ;
#200 = PERSON_AND_ORGANIZATION_ROLE ( 'design_supplier' ) ;
#201 = PERSON_AND_ORGANIZATION ( #83, #35 ) ;
#202 = APPROVAL_ROLE ( '' ) ;
#203 = CIRCLE ( 'NONE', #206, 0.1149999999999999634 ) ;
#204 = DIRECTION ( 'NONE',  ( 4.275831445896958607E-31, 1.000000000000000000, 1.224646799147353207E-16 ) ) ;
#205 = DIRECTION ( 'NONE',  ( 0.0000000000000000000, 0.0000000000000000000, 1.000000000000000000 ) ) ;
#206 = AXIS2_PLACEMENT_3D ( 'NONE', #37, #8, #74 ) ;
#207 = CLOSED_SHELL ( 'NONE', ( #111, #214, #69 ) ) ;
#208 = ADVANCED_FACE ( 'NONE', ( #156, #153 ), #197, .T. ) ;
#209 = FACE_OUTER_BOUND ( 'NONE', #143, .T. ) ;
#210 = CC_DESIGN_SECURITY_CLASSIFICATION ( #30, ( #82 ) ) ;
#211 = DIRECTION ( 'NONE',  ( 3.491481338843133355E-15, -1.224646799147353207E-16, 1.000000000000000000 ) ) ;
#212 = COORDINATED_UNIVERSAL_TIME_OFFSET ( 1, 0, .AHEAD. ) ;
#213 = UNCERTAINTY_MEASURE_WITH_UNIT (LENGTH_MEASURE( 1.000000000000000082E-05 ), #110, 'distance_accuracy_value', 'NONE');
#214 = ADVANCED_FACE ( 'NONE', ( #60, #15 ), #81, .T. ) ;
#215 = PRODUCT_DEFINITION_SHAPE ( 'NONE', 'NONE',  #4 ) ;
#216 = CARTESIAN_POINT ( 'NONE',  ( 8.508179852686078644E-15, -2.984267768309025159E-16, 2.436839560914043634 ) ) ;
#217 = MANIFOLD_SOLID_BREP ( 'Corps-Déplacer/Copier1[1]', #129 ) ;
#218 = CC_DESIGN_PERSON_AND_ORGANIZATION_ASSIGNMENT ( #109, #43, ( #30 ) ) ;
#219 = CARTESIAN_POINT ( 'NONE',  ( 1.043952920314096936E-13, 0.4999999999999954481, 29.90000000000000213 ) ) ;
#220 = CC_DESIGN_PERSON_AND_ORGANIZATION_ASSIGNMENT ( #155, #200, ( #82 ) ) ;
#221 = VERTEX_POINT ( 'NONE', #49 ) ;
#222 = APPLICATION_PROTOCOL_DEFINITION ( 'international standard', 'config_control_design', 1994, #141 ) ;
#223 = COORDINATED_UNIVERSAL_TIME_OFFSET ( 1, 0, .AHEAD. ) ;
ENDSEC;
END-ISO-10303-21;
