ISO-10303-21;
HEADER;
FILE_DESCRIPTION (( 'STEP AP203' ),
    '1' );
FILE_NAME ('952654.step',
    '2021-10-08T05:16:13',
    ( '' ),
    ( '' ),
    'SwSTEP 2.0',
    'SolidWorks 2019',
    '' );
FILE_SCHEMA (( 'CONFIG_CONTROL_DESIGN' ));
ENDSEC;

DATA;
#1 = ORIENTED_EDGE ( 'NONE', *, *, #47, .T. ) ;
#2 = APPROVAL_ROLE ( '' ) ;
#3 = LOCAL_TIME ( 7, 16, 13.00000000000000000, #97 ) ;
#4 = EDGE_CURVE ( 'NONE', #77, #77, #143, .T. ) ;
#5 = CALENDAR_DATE ( 2021, 8, 10 ) ;
#6 = CIRCLE ( 'NONE', #73, 0.4999999999999966693 ) ;
#7 = DIRECTION ( 'NONE',  ( -4.275831445896958607E-31, -1.000000000000000000, -1.224646799147353207E-16 ) ) ;
#8 = DIRECTION ( 'NONE',  ( 0.0000000000000000000, 1.000000000000000000, 0.0000000000000000000 ) ) ;
#9 = ORIENTED_EDGE ( 'NONE', *, *, #4, .T. ) ;
#10 = PERSON_AND_ORGANIZATION_ROLE ( 'creator' ) ;
#11 = ADVANCED_FACE ( 'NONE', ( #52, #67 ), #79, .T. ) ;
#12 = PRODUCT ( '952654', '952654', '', ( #108 ) ) ;
#13 = APPROVAL ( #90, 'UNSPECIFIED' ) ;
#14 = DIRECTION ( 'NONE',  ( -3.491481338843133355E-15, 1.224646799147353207E-16, -1.000000000000000000 ) ) ;
#15 = LOCAL_TIME ( 7, 16, 13.00000000000000000, #158 ) ;
#16 = ORIENTED_EDGE ( 'NONE', *, *, #179, .F. ) ;
#17 = DIRECTION ( 'NONE',  ( 0.0000000000000000000, -1.000000000000000000, 0.0000000000000000000 ) ) ;
#18 = DIRECTION ( 'NONE',  ( 0.0000000000000000000, 1.000000000000000000, 0.0000000000000000000 ) ) ;
#19 = CARTESIAN_POINT ( 'NONE',  ( 2.307683002438528913E-16, -8.094262372083867638E-18, 0.06609466809303228552 ) ) ;
#20 = CLOSED_SHELL ( 'NONE', ( #99, #60, #133, #11, #72 ) ) ;
#21 = PERSON_AND_ORGANIZATION ( #78, #111 ) ;
#22 = FACE_OUTER_BOUND ( 'NONE', #44, .T. ) ;
#23 = DIRECTION ( 'NONE',  ( -3.491481338843133355E-15, 1.224646799147353207E-16, -1.000000000000000000 ) ) ;
#24 = APPLICATION_CONTEXT ( 'configuration controlled 3d designs of mechanical parts and assemblies' ) ;
#25 = ORIENTED_EDGE ( 'NONE', *, *, #87, .T. ) ;
#26 = PERSON_AND_ORGANIZATION ( #78, #111 ) ;
#27 = DIRECTION ( 'NONE',  ( -4.275831445896958607E-31, -1.000000000000000000, -1.224646799147353207E-16 ) ) ;
#28 = FACE_OUTER_BOUND ( 'NONE', #123, .T. ) ;
#29 = LOCAL_TIME ( 7, 16, 13.00000000000000000, #39 ) ;
#30 = APPROVAL ( #211, 'UNSPECIFIED' ) ;
#31 = ORIENTED_EDGE ( 'NONE', *, *, #165, .F. ) ;
#32 = AXIS2_PLACEMENT_3D ( 'NONE', #103, #104, #18 ) ;
#33 = PERSON_AND_ORGANIZATION_ROLE ( 'design_owner' ) ;
#34 = CIRCLE ( 'NONE', #163, 0.1099999999999999728 ) ;
#35 = DIRECTION ( 'NONE',  ( 0.0000000000000000000, 0.0000000000000000000, 1.000000000000000000 ) ) ;
#36 = CARTESIAN_POINT ( 'NONE',  ( 3.491481338843133355E-15, 0.1099999999999998479, 1.000000000000000000 ) ) ;
#37 = CARTESIAN_POINT ( 'NONE',  ( 1.047444401652940007E-13, 0.3999999999999953038, 30.00000000000000000 ) ) ;
#38 = EDGE_LOOP ( 'NONE', ( #25 ) ) ;
#39 = COORDINATED_UNIVERSAL_TIME_OFFSET ( 1, 0, .AHEAD. ) ;
#40 = SECURITY_CLASSIFICATION_LEVEL ( 'unclassified' ) ;
#41 = APPROVAL_ROLE ( '' ) ;
#42 = AXIS2_PLACEMENT_3D ( 'NONE', #19, #129, #151 ) ;
#43 = ADVANCED_FACE ( 'NONE', ( #69 ), #170, .T. ) ;
#44 = EDGE_LOOP ( 'NONE', ( #212 ) ) ;
#45 = AXIS2_PLACEMENT_3D ( 'NONE', #171, #154, #65 ) ;
#46 = DIRECTION ( 'NONE',  ( 0.0000000000000000000, 1.000000000000000000, 0.0000000000000000000 ) ) ;
#47 = EDGE_CURVE ( 'NONE', #195, #195, #201, .T. ) ;
#48 = CARTESIAN_POINT ( 'NONE',  ( 3.491481338843134933E-15, 7.885106708985495542E-15, 1.000000000000000444 ) ) ;
#49 = DIRECTION ( 'NONE',  ( -3.491481338843133355E-15, 1.224646799147353207E-16, -1.000000000000000000 ) ) ;
#50 = APPLICATION_CONTEXT ( 'configuration controlled 3d designs of mechanical parts and assemblies' ) ;
#51 = CYLINDRICAL_SURFACE ( 'NONE', #149, 0.4999999999999978351 ) ;
#52 = FACE_OUTER_BOUND ( 'NONE', #109, .T. ) ;
#53 = DIRECTION ( 'NONE',  ( 3.491481338843133355E-15, -1.224646799147353207E-16, 1.000000000000000000 ) ) ;
#54 = AXIS2_PLACEMENT_3D ( 'NONE', #83, #174, #207 ) ;
#55 = CARTESIAN_POINT ( 'NONE',  ( 8.573331781437283758E-15, 0.4999999999999963363, 2.455499814951887849 ) ) ;
#56 =( LENGTH_UNIT ( ) NAMED_UNIT ( * ) SI_UNIT ( .MILLI., .METRE. ) );
#57 = UNCERTAINTY_MEASURE_WITH_UNIT (LENGTH_MEASURE( 1.000000000000000082E-05 ), #56, 'distance_accuracy_value', 'NONE');
#58 = CALENDAR_DATE ( 2021, 8, 10 ) ;
#59 = APPROVAL_DATE_TIME ( #145, #148 ) ;
#60 = ADVANCED_FACE ( 'NONE', ( #105, #88 ), #130, .T. ) ;
#61 = COORDINATED_UNIVERSAL_TIME_OFFSET ( 1, 0, .AHEAD. ) ;
#62 = AXIS2_PLACEMENT_3D ( 'NONE', #66, #134, #17 ) ;
#63 = PRODUCT_DEFINITION ( 'UNKNOWN', '', #157, #198 ) ;
#64 = ORIENTED_EDGE ( 'NONE', *, *, #215, .T. ) ;
#65 = DIRECTION ( 'NONE',  ( 0.0000000000000000000, 1.000000000000000000, 0.0000000000000000000 ) ) ;
#66 = CARTESIAN_POINT ( 'NONE',  ( 8.573331781437283758E-15, -3.007119988687747874E-16, 2.455499814951887849 ) ) ;
#67 = FACE_BOUND ( 'NONE', #128, .T. ) ;
#68 = DIRECTION ( 'NONE',  ( 3.491481338843133355E-15, -1.224646799147353207E-16, 1.000000000000000000 ) ) ;
#69 = FACE_OUTER_BOUND ( 'NONE', #218, .T. ) ;
#70 = CARTESIAN_POINT ( 'NONE',  ( 0.0000000000000000000, 0.0000000000000000000, 0.0000000000000000000 ) ) ;
#71 = CARTESIAN_POINT ( 'NONE',  ( 2.307683002438528913E-16, -8.094262372083867638E-18, 0.06609466809303228552 ) ) ;
#72 = ADVANCED_FACE ( 'NONE', ( #28 ), #206, .F. ) ;
#73 = AXIS2_PLACEMENT_3D ( 'NONE', #167, #132, #8 ) ;
#74 = APPROVAL_DATE_TIME ( #106, #30 ) ;
#75 = ORIENTED_EDGE ( 'NONE', *, *, #165, .T. ) ;
#76 = PERSON_AND_ORGANIZATION_ROLE ( 'creator' ) ;
#77 = VERTEX_POINT ( 'NONE', #36 ) ;
#78 = PERSON ( 'UNSPECIFIED', 'UNSPECIFIED', 'UNSPECIFIED', ('UNSPECIFIED'), ('UNSPECIFIED'), ('UNSPECIFIED') ) ;
#79 = CONICAL_SURFACE ( 'NONE', #203, 0.3999999999999989675, 0.7853981633974694843 ) ;
#80 = PERSON_AND_ORGANIZATION ( #78, #111 ) ;
#81 = ADVANCED_BREP_SHAPE_REPRESENTATION ( '952654', ( #221, #137, #217 ), #191 ) ;
#82 = SECURITY_CLASSIFICATION ( '', '', #40 ) ;
#83 = CARTESIAN_POINT ( 'NONE',  ( 0.0000000000000000000, 0.0000000000000000000, 0.0000000000000000000 ) ) ;
#84 = APPROVAL_PERSON_ORGANIZATION ( #21, #13, #2 ) ;
#85 = ORIENTED_EDGE ( 'NONE', *, *, #87, .F. ) ;
#86 = DIRECTION ( 'NONE',  ( -3.491481338843133355E-15, 1.224646799147353207E-16, -1.000000000000000000 ) ) ;
#87 = EDGE_CURVE ( 'NONE', #91, #91, #34, .T. ) ;
#88 = FACE_OUTER_BOUND ( 'NONE', #219, .T. ) ;
#89 = ORIENTED_EDGE ( 'NONE', *, *, #179, .T. ) ;
#90 = APPROVAL_STATUS ( 'not_yet_approved' ) ;
#91 = VERTEX_POINT ( 'NONE', #139 ) ;
#92 = APPROVAL_ROLE ( '' ) ;
#93 = DATE_TIME_ROLE ( 'creation_date' ) ;
#94 = ORIENTED_EDGE ( 'NONE', *, *, #47, .F. ) ;
#95 = SHAPE_DEFINITION_REPRESENTATION ( #116, #81 ) ;
#96 = CC_DESIGN_PERSON_AND_ORGANIZATION_ASSIGNMENT ( #26, #126, ( #157 ) ) ;
#97 = COORDINATED_UNIVERSAL_TIME_OFFSET ( 1, 0, .AHEAD. ) ;
#98 = AXIS2_PLACEMENT_3D ( 'NONE', #48, #68, #27 ) ;
#99 = ADVANCED_FACE ( 'NONE', ( #189 ), #208, .F. ) ;
#100 = APPROVAL_PERSON_ORGANIZATION ( #80, #148, #41 ) ;
#101 = CYLINDRICAL_SURFACE ( 'NONE', #54, 0.1099999999999999312 ) ;
#102 = FACE_OUTER_BOUND ( 'NONE', #190, .T. ) ;
#103 = CARTESIAN_POINT ( 'NONE',  ( 1.043952920314096936E-13, -3.661693929450586610E-15, 29.90000000000000213 ) ) ;
#104 = DIRECTION ( 'NONE',  ( -3.491481338843133355E-15, 1.224646799147353207E-16, -1.000000000000000000 ) ) ;
#105 = FACE_BOUND ( 'NONE', #186, .T. ) ;
#106 = DATE_AND_TIME ( #5, #15 ) ;
#107 = DIRECTION ( 'NONE',  ( 4.377113509970994556E-31, 1.000000000000000000, 1.232047923278983432E-16 ) ) ;
#108 = MECHANICAL_CONTEXT ( 'NONE', #24, 'mechanical' ) ;
#109 = EDGE_LOOP ( 'NONE', ( #94 ) ) ;
#110 = DATE_AND_TIME ( #122, #125 ) ;
#111 = ORGANIZATION ( 'UNSPECIFIED', 'UNSPECIFIED', '' ) ;
#112 = PERSON_AND_ORGANIZATION_ROLE ( 'classification_officer' ) ;
#113 = ADVANCED_FACE ( 'NONE', ( #115, #135 ), #101, .T. ) ;
#114 = EDGE_LOOP ( 'NONE', ( #16 ) ) ;
#115 = FACE_OUTER_BOUND ( 'NONE', #185, .T. ) ;
#116 = PRODUCT_DEFINITION_SHAPE ( 'NONE', 'NONE',  #63 ) ;
#117 = ORIENTED_EDGE ( 'NONE', *, *, #215, .F. ) ;
#118 = CARTESIAN_POINT ( 'NONE',  ( 0.0000000000000000000, 0.0000000000000000000, 0.0000000000000000000 ) ) ;
#119 = CC_DESIGN_APPROVAL ( #13, ( #157 ) ) ;
#120 =( NAMED_UNIT ( * ) SI_UNIT ( $, .STERADIAN. ) SOLID_ANGLE_UNIT ( ) );
#121 = APPLICATION_PROTOCOL_DEFINITION ( 'international standard', 'config_control_design', 1994, #24 ) ;
#122 = CALENDAR_DATE ( 2021, 8, 10 ) ;
#123 = EDGE_LOOP ( 'NONE', ( #31 ) ) ;
#124 = APPROVAL_DATE_TIME ( #144, #13 ) ;
#125 = LOCAL_TIME ( 7, 16, 13.00000000000000000, #141 ) ;
#126 = PERSON_AND_ORGANIZATION_ROLE ( 'design_supplier' ) ;
#127 = AXIS2_PLACEMENT_3D ( 'NONE', #197, #53, #7 ) ;
#128 = EDGE_LOOP ( 'NONE', ( #75 ) ) ;
#129 = DIRECTION ( 'NONE',  ( 3.491481338843133355E-15, -1.224646799147353207E-16, 1.000000000000000000 ) ) ;
#130 = CONICAL_SURFACE ( 'NONE', #62, 0.4999999999999966693, 0.2617993877991428575 ) ;
#131 = CC_DESIGN_PERSON_AND_ORGANIZATION_ASSIGNMENT ( #140, #76, ( #63 ) ) ;
#132 = DIRECTION ( 'NONE',  ( -3.491481338843133355E-15, 1.224646799147353207E-16, -1.000000000000000000 ) ) ;
#133 = ADVANCED_FACE ( 'NONE', ( #205, #102 ), #51, .T. ) ;
#134 = DIRECTION ( 'NONE',  ( 3.491481338843133355E-15, -1.224646799147353207E-16, 1.000000000000000000 ) ) ;
#135 = FACE_OUTER_BOUND ( 'NONE', #222, .T. ) ;
#136 = DIRECTION ( 'NONE',  ( 4.275831445896958607E-31, 1.000000000000000000, 1.224646799147353207E-16 ) ) ;
#137 = MANIFOLD_SOLID_BREP ( 'Corps-Déplacer/Copier1[2]', #216 ) ;
#138 = PLANE ( 'NONE',  #127 ) ;
#139 = CARTESIAN_POINT ( 'NONE',  ( 3.491481338843133355E-15, 0.1099999999999998479, 1.000000000000000000 ) ) ;
#140 = PERSON_AND_ORGANIZATION ( #78, #111 ) ;
#141 = COORDINATED_UNIVERSAL_TIME_OFFSET ( 1, 0, .AHEAD. ) ;
#142 = VERTEX_POINT ( 'NONE', #37 ) ;
#143 = CIRCLE ( 'NONE', #45, 0.1099999999999999728 ) ;
#144 = DATE_AND_TIME ( #58, #29 ) ;
#145 = DATE_AND_TIME ( #162, #3 ) ;
#146 = APPROVAL_PERSON_ORGANIZATION ( #180, #30, #92 ) ;
#147 = PERSON_AND_ORGANIZATION ( #78, #111 ) ;
#148 = APPROVAL ( #213, 'UNSPECIFIED' ) ;
#149 = AXIS2_PLACEMENT_3D ( 'NONE', #118, #204, #150 ) ;
#150 = DIRECTION ( 'NONE',  ( 4.275831445896958607E-31, 1.000000000000000000, 1.224646799147353207E-16 ) ) ;
#151 = DIRECTION ( 'NONE',  ( -4.377113509970994556E-31, -1.000000000000000000, -1.232047923278983432E-16 ) ) ;
#152 = AXIS2_PLACEMENT_3D ( 'NONE', #192, #86, #136 ) ;
#153 = CARTESIAN_POINT ( 'NONE',  ( 1.047444401652940007E-13, -3.673940397442059178E-15, 30.00000000000000000 ) ) ;
#154 = DIRECTION ( 'NONE',  ( -3.491481338843133355E-15, 1.224646799147353207E-16, -1.000000000000000000 ) ) ;
#155 = CC_DESIGN_PERSON_AND_ORGANIZATION_ASSIGNMENT ( #147, #10, ( #157 ) ) ;
#156 = DIRECTION ( 'NONE',  ( -3.491481338843133355E-15, 1.224646799147353207E-16, -1.000000000000000000 ) ) ;
#157 = PRODUCT_DEFINITION_FORMATION_WITH_SPECIFIED_SOURCE ( 'ANY', '', #12, .NOT_KNOWN. ) ;
#158 = COORDINATED_UNIVERSAL_TIME_OFFSET ( 1, 0, .AHEAD. ) ;
#159 = CIRCLE ( 'NONE', #202, 0.1099999999999998895 ) ;
#160 = DIRECTION ( 'NONE',  ( 1.000000000000000000, 0.0000000000000000000, 0.0000000000000000000 ) ) ;
#161 =( NAMED_UNIT ( * ) PLANE_ANGLE_UNIT ( ) SI_UNIT ( $, .RADIAN. ) );
#162 = CALENDAR_DATE ( 2021, 8, 10 ) ;
#163 = AXIS2_PLACEMENT_3D ( 'NONE', #220, #49, #223 ) ;
#164 = DATE_AND_TIME ( #183, #187 ) ;
#165 = EDGE_CURVE ( 'NONE', #142, #142, #181, .T. ) ;
#166 = CARTESIAN_POINT ( 'NONE',  ( 1.047444401652940007E-13, -3.673940397442059178E-15, 30.00000000000000000 ) ) ;
#167 = CARTESIAN_POINT ( 'NONE',  ( 8.573331781437283758E-15, -3.007119988687747874E-16, 2.455499814951887849 ) ) ;
#168 = AXIS2_PLACEMENT_3D ( 'NONE', #166, #14, #46 ) ;
#169 = DIRECTION ( 'NONE',  ( 0.0000000000000000000, 1.000000000000000000, 0.0000000000000000000 ) ) ;
#170 = CONICAL_SURFACE ( 'NONE', #42, 0.1099999999999998895, 1.029744258676649871 ) ;
#171 = CARTESIAN_POINT ( 'NONE',  ( 3.491481338843133355E-15, -1.224646799147353207E-16, 1.000000000000000000 ) ) ;
#172 = PRODUCT_RELATED_PRODUCT_CATEGORY ( 'detail', '', ( #12 ) ) ;
#173 = CC_DESIGN_APPROVAL ( #148, ( #82 ) ) ;
#174 = DIRECTION ( 'NONE',  ( -3.491481338843133355E-15, 1.224646799147353207E-16, -1.000000000000000000 ) ) ;
#175 = APPLICATION_PROTOCOL_DEFINITION ( 'international standard', 'config_control_design', 1994, #50 ) ;
#176 = CC_DESIGN_PERSON_AND_ORGANIZATION_ASSIGNMENT ( #200, #112, ( #82 ) ) ;
#177 = CARTESIAN_POINT ( 'NONE',  ( 1.043952920314096936E-13, 0.4999999999999954481, 29.90000000000000213 ) ) ;
#178 = CC_DESIGN_APPROVAL ( #30, ( #63 ) ) ;
#179 = EDGE_CURVE ( 'NONE', #210, #210, #6, .T. ) ;
#180 = PERSON_AND_ORGANIZATION ( #78, #111 ) ;
#181 = CIRCLE ( 'NONE', #168, 0.3999999999999989675 ) ;
#182 = CC_DESIGN_DATE_AND_TIME_ASSIGNMENT ( #164, #199, ( #82 ) ) ;
#183 = CALENDAR_DATE ( 2021, 8, 10 ) ;
#184 = CC_DESIGN_PERSON_AND_ORGANIZATION_ASSIGNMENT ( #193, #33, ( #12 ) ) ;
#185 = EDGE_LOOP ( 'NONE', ( #117 ) ) ;
#186 = EDGE_LOOP ( 'NONE', ( #85 ) ) ;
#187 = LOCAL_TIME ( 7, 16, 13.00000000000000000, #61 ) ;
#188 = ADVANCED_FACE ( 'NONE', ( #22 ), #138, .T. ) ;
#189 = FACE_OUTER_BOUND ( 'NONE', #38, .T. ) ;
#190 = EDGE_LOOP ( 'NONE', ( #1 ) ) ;
#191 =( GEOMETRIC_REPRESENTATION_CONTEXT ( 3 ) GLOBAL_UNCERTAINTY_ASSIGNED_CONTEXT ( ( #57 ) ) GLOBAL_UNIT_ASSIGNED_CONTEXT ( ( #56, #161, #120 ) ) REPRESENTATION_CONTEXT ( 'NONE', 'WORKASPACE' ) );
#192 = CARTESIAN_POINT ( 'NONE',  ( 1.047444401652940007E-13, 2.999519565323652267E-33, 30.00000000000000000 ) ) ;
#193 = PERSON_AND_ORGANIZATION ( #78, #111 ) ;
#194 = VERTEX_POINT ( 'NONE', #209 ) ;
#195 = VERTEX_POINT ( 'NONE', #177 ) ;
#196 = CC_DESIGN_SECURITY_CLASSIFICATION ( #82, ( #157 ) ) ;
#197 = CARTESIAN_POINT ( 'NONE',  ( 3.491481338843134933E-15, 7.885106708985495542E-15, 1.000000000000000444 ) ) ;
#198 = DESIGN_CONTEXT ( 'detailed design', #50, 'design' ) ;
#199 = DATE_TIME_ROLE ( 'classification_date' ) ;
#200 = PERSON_AND_ORGANIZATION ( #78, #111 ) ;
#201 = CIRCLE ( 'NONE', #32, 0.4999999999999991673 ) ;
#202 = AXIS2_PLACEMENT_3D ( 'NONE', #71, #23, #107 ) ;
#203 = AXIS2_PLACEMENT_3D ( 'NONE', #153, #156, #169 ) ;
#204 = DIRECTION ( 'NONE',  ( -3.491481338843133355E-15, 1.224646799147353207E-16, -1.000000000000000000 ) ) ;
#205 = FACE_OUTER_BOUND ( 'NONE', #114, .T. ) ;
#206 = PLANE ( 'NONE',  #152 ) ;
#207 = DIRECTION ( 'NONE',  ( 4.275831445896958607E-31, 1.000000000000000000, 1.224646799147353207E-16 ) ) ;
#208 = PLANE ( 'NONE',  #98 ) ;
#209 = CARTESIAN_POINT ( 'NONE',  ( 2.307683002438529406E-16, 0.1099999999999998757, 0.06609466809303229939 ) ) ;
#210 = VERTEX_POINT ( 'NONE', #55 ) ;
#211 = APPROVAL_STATUS ( 'not_yet_approved' ) ;
#212 = ORIENTED_EDGE ( 'NONE', *, *, #4, .F. ) ;
#213 = APPROVAL_STATUS ( 'not_yet_approved' ) ;
#214 = CC_DESIGN_DATE_AND_TIME_ASSIGNMENT ( #110, #93, ( #63 ) ) ;
#215 = EDGE_CURVE ( 'NONE', #194, #194, #159, .T. ) ;
#216 = CLOSED_SHELL ( 'NONE', ( #43, #113, #188 ) ) ;
#217 = AXIS2_PLACEMENT_3D ( 'NONE', #70, #35, #160 ) ;
#218 = EDGE_LOOP ( 'NONE', ( #64 ) ) ;
#219 = EDGE_LOOP ( 'NONE', ( #89 ) ) ;
#220 = CARTESIAN_POINT ( 'NONE',  ( 3.491481338843133355E-15, -1.224646799147353207E-16, 1.000000000000000000 ) ) ;
#221 = MANIFOLD_SOLID_BREP ( 'Corps-Déplacer/Copier1[1]', #20 ) ;
#222 = EDGE_LOOP ( 'NONE', ( #9 ) ) ;
#223 = DIRECTION ( 'NONE',  ( 0.0000000000000000000, 1.000000000000000000, 0.0000000000000000000 ) ) ;
ENDSEC;
END-ISO-10303-21;
