ISO-10303-21;
HEADER;
FILE_DESCRIPTION (( 'STEP AP203' ),
    '1' );
FILE_NAME ('952652.step',
    '2021-10-08T05:16:11',
    ( '' ),
    ( '' ),
    'SwSTEP 2.0',
    'SolidWorks 2019',
    '' );
FILE_SCHEMA (( 'CONFIG_CONTROL_DESIGN' ));
ENDSEC;

DATA;
#1 = DATE_AND_TIME ( #158, #142 ) ;
#2 = COORDINATED_UNIVERSAL_TIME_OFFSET ( 1, 0, .AHEAD. ) ;
#3 =( LENGTH_UNIT ( ) NAMED_UNIT ( * ) SI_UNIT ( .MILLI., .METRE. ) );
#4 = CIRCLE ( 'NONE', #196, 0.4999999999999957812 ) ;
#5 = AXIS2_PLACEMENT_3D ( 'NONE', #16, #114, #63 ) ;
#6 = EDGE_LOOP ( 'NONE', ( #80 ) ) ;
#7 = ADVANCED_FACE ( 'NONE', ( #79, #146 ), #216, .T. ) ;
#8 = EDGE_LOOP ( 'NONE', ( #26 ) ) ;
#9 = AXIS2_PLACEMENT_3D ( 'NONE', #115, #93, #186 ) ;
#10 = FACE_OUTER_BOUND ( 'NONE', #6, .T. ) ;
#11 = CONICAL_SURFACE ( 'NONE', #205, 0.3999999999999989675, 0.7853981633974694843 ) ;
#12 = CARTESIAN_POINT ( 'NONE',  ( 2.097893638580448245E-16, -7.358420338257946634E-18, 0.06008606190275568582 ) ) ;
#13 = VERTEX_POINT ( 'NONE', #150 ) ;
#14 = CARTESIAN_POINT ( 'NONE',  ( 1.047444401652940007E-13, 0.3999999999999953038, 30.00000000000000000 ) ) ;
#15 = LOCAL_TIME ( 7, 16, 11.00000000000000000, #204 ) ;
#16 = CARTESIAN_POINT ( 'NONE',  ( 1.047444401652940007E-13, -3.673940397442059178E-15, 30.00000000000000000 ) ) ;
#17 = MECHANICAL_CONTEXT ( 'NONE', #58, 'mechanical' ) ;
#18 = APPLICATION_CONTEXT ( 'configuration controlled 3d designs of mechanical parts and assemblies' ) ;
#19 = COORDINATED_UNIVERSAL_TIME_OFFSET ( 1, 0, .AHEAD. ) ;
#20 = CIRCLE ( 'NONE', #5, 0.3999999999999989675 ) ;
#21 = APPROVAL_ROLE ( '' ) ;
#22 = CC_DESIGN_PERSON_AND_ORGANIZATION_ASSIGNMENT ( #100, #173, ( #77 ) ) ;
#23 = PERSON_AND_ORGANIZATION ( #203, #42 ) ;
#24 = ADVANCED_BREP_SHAPE_REPRESENTATION ( '952652', ( #135, #65, #223 ), #148 ) ;
#25 = AXIS2_PLACEMENT_3D ( 'NONE', #113, #215, #81 ) ;
#26 = ORIENTED_EDGE ( 'NONE', *, *, #67, .T. ) ;
#27 = CC_DESIGN_DATE_AND_TIME_ASSIGNMENT ( #139, #57, ( #99 ) ) ;
#28 = EDGE_LOOP ( 'NONE', ( #123 ) ) ;
#29 = CONICAL_SURFACE ( 'NONE', #153, 0.09999999999999853451, 1.029744258676650537 ) ;
#30 = FACE_OUTER_BOUND ( 'NONE', #122, .T. ) ;
#31 = ORIENTED_EDGE ( 'NONE', *, *, #47, .T. ) ;
#32 = DIRECTION ( 'NONE',  ( -3.491481338843133355E-15, 1.224646799147353207E-16, -1.000000000000000000 ) ) ;
#33 = DIRECTION ( 'NONE',  ( 0.0000000000000000000, 1.000000000000000000, 0.0000000000000000000 ) ) ;
#34 = AXIS2_PLACEMENT_3D ( 'NONE', #199, #134, #155 ) ;
#35 = CARTESIAN_POINT ( 'NONE',  ( 0.0000000000000000000, 0.0000000000000000000, 0.0000000000000000000 ) ) ;
#36 = PRODUCT ( '952652', '952652', '', ( #17 ) ) ;
#37 = VERTEX_POINT ( 'NONE', #184 ) ;
#38 = ADVANCED_FACE ( 'NONE', ( #30 ), #89, .F. ) ;
#39 = AXIS2_PLACEMENT_3D ( 'NONE', #201, #83, #167 ) ;
#40 = VERTEX_POINT ( 'NONE', #14 ) ;
#41 = APPROVAL_DATE_TIME ( #119, #208 ) ;
#42 = ORGANIZATION ( 'UNSPECIFIED', 'UNSPECIFIED', '' ) ;
#43 =( NAMED_UNIT ( * ) SI_UNIT ( $, .STERADIAN. ) SOLID_ANGLE_UNIT ( ) );
#44 = PERSON_AND_ORGANIZATION_ROLE ( 'creator' ) ;
#45 = APPROVAL_DATE_TIME ( #183, #106 ) ;
#46 = ORIENTED_EDGE ( 'NONE', *, *, #182, .T. ) ;
#47 = EDGE_CURVE ( 'NONE', #13, #13, #56, .T. ) ;
#48 = LOCAL_TIME ( 7, 16, 11.00000000000000000, #75 ) ;
#49 = EDGE_LOOP ( 'NONE', ( #178 ) ) ;
#50 = CYLINDRICAL_SURFACE ( 'NONE', #166, 0.4999999999999973910 ) ;
#51 = FACE_OUTER_BOUND ( 'NONE', #212, .T. ) ;
#52 = DIRECTION ( 'NONE',  ( 0.0000000000000000000, 1.000000000000000000, 0.0000000000000000000 ) ) ;
#53 = ADVANCED_FACE ( 'NONE', ( #82 ), #29, .T. ) ;
#54 = FACE_OUTER_BOUND ( 'NONE', #164, .T. ) ;
#55 = CALENDAR_DATE ( 2021, 8, 10 ) ;
#56 = CIRCLE ( 'NONE', #206, 0.09999999999999864553 ) ;
#57 = DATE_TIME_ROLE ( 'creation_date' ) ;
#58 = APPLICATION_CONTEXT ( 'configuration controlled 3d designs of mechanical parts and assemblies' ) ;
#59 = DIRECTION ( 'NONE',  ( 1.000000000000000000, 0.0000000000000000000, 0.0000000000000000000 ) ) ;
#60 = CIRCLE ( 'NONE', #180, 0.09999999999999864553 ) ;
#61 = EDGE_LOOP ( 'NONE', ( #88 ) ) ;
#62 = ORIENTED_EDGE ( 'NONE', *, *, #198, .T. ) ;
#63 = DIRECTION ( 'NONE',  ( 0.0000000000000000000, 1.000000000000000000, 0.0000000000000000000 ) ) ;
#64 = EDGE_CURVE ( 'NONE', #220, #220, #4, .T. ) ;
#65 = MANIFOLD_SOLID_BREP ( 'Corps-Déplacer/Copier1[2]', #162 ) ;
#66 = CYLINDRICAL_SURFACE ( 'NONE', #9, 0.09999999999999859002 ) ;
#67 = EDGE_CURVE ( 'NONE', #37, #37, #60, .T. ) ;
#68 = FACE_OUTER_BOUND ( 'NONE', #195, .T. ) ;
#69 = LOCAL_TIME ( 7, 16, 11.00000000000000000, #2 ) ;
#70 = CARTESIAN_POINT ( 'NONE',  ( 1.047444401652940007E-13, -3.673940397442059178E-15, 30.00000000000000000 ) ) ;
#71 = PERSON_AND_ORGANIZATION ( #203, #42 ) ;
#72 = APPROVAL_PERSON_ORGANIZATION ( #222, #78, #193 ) ;
#73 = APPROVAL_ROLE ( '' ) ;
#74 = DATE_TIME_ROLE ( 'classification_date' ) ;
#75 = COORDINATED_UNIVERSAL_TIME_OFFSET ( 1, 0, .AHEAD. ) ;
#76 = PERSON_AND_ORGANIZATION_ROLE ( 'creator' ) ;
#77 = SECURITY_CLASSIFICATION ( '', '', #118 ) ;
#78 = APPROVAL ( #176, 'UNSPECIFIED' ) ;
#79 = FACE_BOUND ( 'NONE', #179, .T. ) ;
#80 = ORIENTED_EDGE ( 'NONE', *, *, #47, .F. ) ;
#81 = DIRECTION ( 'NONE',  ( -4.275831445896958607E-31, -1.000000000000000000, -1.224646799147353207E-16 ) ) ;
#82 = FACE_OUTER_BOUND ( 'NONE', #213, .T. ) ;
#83 = DIRECTION ( 'NONE',  ( 3.491481338843133355E-15, -1.224646799147353207E-16, 1.000000000000000000 ) ) ;
#84 = AXIS2_PLACEMENT_3D ( 'NONE', #117, #189, #218 ) ;
#85 = CARTESIAN_POINT ( 'NONE',  ( 1.043952920314096936E-13, -3.661693929450586610E-15, 29.90000000000000213 ) ) ;
#86 = PRODUCT_DEFINITION_FORMATION_WITH_SPECIFIED_SOURCE ( 'ANY', '', #36, .NOT_KNOWN. ) ;
#87 = DESIGN_CONTEXT ( 'detailed design', #18, 'design' ) ;
#88 = ORIENTED_EDGE ( 'NONE', *, *, #64, .F. ) ;
#89 = PLANE ( 'NONE',  #34 ) ;
#90 = ADVANCED_FACE ( 'NONE', ( #187, #54 ), #66, .T. ) ;
#91 = CARTESIAN_POINT ( 'NONE',  ( 2.097893638580448738E-16, 0.09999999999999853451, 0.06008606190275569969 ) ) ;
#92 = CALENDAR_DATE ( 2021, 8, 10 ) ;
#93 = DIRECTION ( 'NONE',  ( -3.491481338843133355E-15, 1.224646799147353207E-16, -1.000000000000000000 ) ) ;
#94 = DIRECTION ( 'NONE',  ( 4.275831445896958607E-31, 1.000000000000000000, 1.224646799147353207E-16 ) ) ;
#95 = CC_DESIGN_PERSON_AND_ORGANIZATION_ASSIGNMENT ( #143, #211, ( #86 ) ) ;
#96 = DIRECTION ( 'NONE',  ( -4.814824860968160573E-31, -1.000000000000000000, -1.355252715606900511E-16 ) ) ;
#97 = DIRECTION ( 'NONE',  ( -3.491481338843133355E-15, 1.224646799147353207E-16, -1.000000000000000000 ) ) ;
#98 = APPROVAL_STATUS ( 'not_yet_approved' ) ;
#99 = PRODUCT_DEFINITION ( 'UNKNOWN', '', #86, #87 ) ;
#100 = PERSON_AND_ORGANIZATION ( #203, #42 ) ;
#101 = CC_DESIGN_APPROVAL ( #78, ( #99 ) ) ;
#102 = PERSON_AND_ORGANIZATION ( #203, #42 ) ;
#103 = PERSON_AND_ORGANIZATION ( #203, #42 ) ;
#104 = VERTEX_POINT ( 'NONE', #172 ) ;
#105 = LOCAL_TIME ( 7, 16, 11.00000000000000000, #120 ) ;
#106 = APPROVAL ( #175, 'UNSPECIFIED' ) ;
#107 = SHAPE_DEFINITION_REPRESENTATION ( #154, #24 ) ;
#108 = EDGE_LOOP ( 'NONE', ( #163 ) ) ;
#109 = ORIENTED_EDGE ( 'NONE', *, *, #198, .F. ) ;
#110 = DIRECTION ( 'NONE',  ( 3.491481338843133355E-15, -1.224646799147353207E-16, 1.000000000000000000 ) ) ;
#111 = ADVANCED_FACE ( 'NONE', ( #10 ), #221, .T. ) ;
#112 = AXIS2_PLACEMENT_3D ( 'NONE', #85, #200, #188 ) ;
#113 = CARTESIAN_POINT ( 'NONE',  ( 3.491481338843136511E-15, 7.498798913309170010E-34, 1.000000000000000888 ) ) ;
#114 = DIRECTION ( 'NONE',  ( -3.491481338843133355E-15, 1.224646799147353207E-16, -1.000000000000000000 ) ) ;
#115 = CARTESIAN_POINT ( 'NONE',  ( 0.0000000000000000000, 0.0000000000000000000, 0.0000000000000000000 ) ) ;
#116 = DIRECTION ( 'NONE',  ( -3.491481338843133355E-15, 1.224646799147353207E-16, -1.000000000000000000 ) ) ;
#117 = CARTESIAN_POINT ( 'NONE',  ( 2.097893638580448245E-16, -7.358420338257946634E-18, 0.06008606190275568582 ) ) ;
#118 = SECURITY_CLASSIFICATION_LEVEL ( 'unclassified' ) ;
#119 = DATE_AND_TIME ( #192, #105 ) ;
#120 = COORDINATED_UNIVERSAL_TIME_OFFSET ( 1, 0, .AHEAD. ) ;
#121 = APPLICATION_PROTOCOL_DEFINITION ( 'international standard', 'config_control_design', 1994, #18 ) ;
#122 = EDGE_LOOP ( 'NONE', ( #126 ) ) ;
#123 = ORIENTED_EDGE ( 'NONE', *, *, #64, .T. ) ;
#124 = CARTESIAN_POINT ( 'NONE',  ( 8.703635638939706609E-15, -3.052824429445197247E-16, 2.492820323027580276 ) ) ;
#125 = UNCERTAINTY_MEASURE_WITH_UNIT (LENGTH_MEASURE( 1.000000000000000082E-05 ), #3, 'distance_accuracy_value', 'NONE');
#126 = ORIENTED_EDGE ( 'NONE', *, *, #136, .F. ) ;
#127 = CC_DESIGN_APPROVAL ( #208, ( #86 ) ) ;
#128 = CLOSED_SHELL ( 'NONE', ( #177, #7, #214, #185, #38 ) ) ;
#129 = FACE_OUTER_BOUND ( 'NONE', #61, .T. ) ;
#130 = CARTESIAN_POINT ( 'NONE',  ( 8.703635638939706609E-15, 0.4999999999999954481, 2.492820323027580276 ) ) ;
#131 = DIRECTION ( 'NONE',  ( 0.0000000000000000000, 1.000000000000000000, 0.0000000000000000000 ) ) ;
#132 = CIRCLE ( 'NONE', #84, 0.09999999999999853451 ) ;
#133 = DIRECTION ( 'NONE',  ( -3.491481338843133355E-15, 1.224646799147353207E-16, -1.000000000000000000 ) ) ;
#134 = DIRECTION ( 'NONE',  ( -3.491481338843133355E-15, 1.224646799147353207E-16, -1.000000000000000000 ) ) ;
#135 = MANIFOLD_SOLID_BREP ( 'Corps-Déplacer/Copier1[1]', #128 ) ;
#136 = EDGE_CURVE ( 'NONE', #40, #40, #20, .T. ) ;
#137 = APPLICATION_PROTOCOL_DEFINITION ( 'international standard', 'config_control_design', 1994, #58 ) ;
#138 = APPROVAL_PERSON_ORGANIZATION ( #102, #106, #21 ) ;
#139 = DATE_AND_TIME ( #55, #69 ) ;
#140 = CC_DESIGN_PERSON_AND_ORGANIZATION_ASSIGNMENT ( #23, #44, ( #86 ) ) ;
#141 =( NAMED_UNIT ( * ) PLANE_ANGLE_UNIT ( ) SI_UNIT ( $, .RADIAN. ) );
#142 = LOCAL_TIME ( 7, 16, 11.00000000000000000, #19 ) ;
#143 = PERSON_AND_ORGANIZATION ( #203, #42 ) ;
#144 = CC_DESIGN_PERSON_AND_ORGANIZATION_ASSIGNMENT ( #71, #209, ( #36 ) ) ;
#145 = APPROVAL_PERSON_ORGANIZATION ( #103, #208, #73 ) ;
#146 = FACE_OUTER_BOUND ( 'NONE', #28, .T. ) ;
#147 = DIRECTION ( 'NONE',  ( 0.0000000000000000000, 1.000000000000000000, 0.0000000000000000000 ) ) ;
#148 =( GEOMETRIC_REPRESENTATION_CONTEXT ( 3 ) GLOBAL_UNCERTAINTY_ASSIGNED_CONTEXT ( ( #125 ) ) GLOBAL_UNIT_ASSIGNED_CONTEXT ( ( #3, #141, #43 ) ) REPRESENTATION_CONTEXT ( 'NONE', 'WORKASPACE' ) );
#149 = AXIS2_PLACEMENT_3D ( 'NONE', #124, #110, #181 ) ;
#150 = CARTESIAN_POINT ( 'NONE',  ( 3.491481338843136511E-15, 0.09999999999999853451, 1.000000000000000888 ) ) ;
#151 = DIRECTION ( 'NONE',  ( -3.491481338843133355E-15, 1.224646799147353207E-16, -1.000000000000000000 ) ) ;
#152 = FACE_BOUND ( 'NONE', #108, .T. ) ;
#153 = AXIS2_PLACEMENT_3D ( 'NONE', #12, #168, #96 ) ;
#154 = PRODUCT_DEFINITION_SHAPE ( 'NONE', 'NONE',  #99 ) ;
#155 = DIRECTION ( 'NONE',  ( 4.275831445896958607E-31, 1.000000000000000000, 1.224646799147353207E-16 ) ) ;
#156 = DIRECTION ( 'NONE',  ( 0.0000000000000000000, 0.0000000000000000000, 1.000000000000000000 ) ) ;
#157 = CARTESIAN_POINT ( 'NONE',  ( 0.0000000000000000000, 0.0000000000000000000, 0.0000000000000000000 ) ) ;
#158 = CALENDAR_DATE ( 2021, 8, 10 ) ;
#159 = APPROVAL_DATE_TIME ( #190, #78 ) ;
#160 = CALENDAR_DATE ( 2021, 8, 10 ) ;
#161 = CC_DESIGN_SECURITY_CLASSIFICATION ( #77, ( #86 ) ) ;
#162 = CLOSED_SHELL ( 'NONE', ( #53, #90, #111 ) ) ;
#163 = ORIENTED_EDGE ( 'NONE', *, *, #136, .T. ) ;
#164 = EDGE_LOOP ( 'NONE', ( #31 ) ) ;
#165 = FACE_OUTER_BOUND ( 'NONE', #8, .T. ) ;
#166 = AXIS2_PLACEMENT_3D ( 'NONE', #35, #32, #94 ) ;
#167 = DIRECTION ( 'NONE',  ( -4.275831445896958607E-31, -1.000000000000000000, -1.224646799147353207E-16 ) ) ;
#168 = DIRECTION ( 'NONE',  ( 3.491481338843133355E-15, -1.224646799147353207E-16, 1.000000000000000000 ) ) ;
#169 = PLANE ( 'NONE',  #39 ) ;
#170 = CC_DESIGN_APPROVAL ( #106, ( #77 ) ) ;
#171 = VERTEX_POINT ( 'NONE', #91 ) ;
#172 = CARTESIAN_POINT ( 'NONE',  ( 1.043952920314096936E-13, 0.4999999999999954481, 29.90000000000000213 ) ) ;
#173 = PERSON_AND_ORGANIZATION_ROLE ( 'classification_officer' ) ;
#174 = PRODUCT_RELATED_PRODUCT_CATEGORY ( 'detail', '', ( #36 ) ) ;
#175 = APPROVAL_STATUS ( 'not_yet_approved' ) ;
#176 = APPROVAL_STATUS ( 'not_yet_approved' ) ;
#177 = ADVANCED_FACE ( 'NONE', ( #165 ), #169, .F. ) ;
#178 = ORIENTED_EDGE ( 'NONE', *, *, #182, .F. ) ;
#179 = EDGE_LOOP ( 'NONE', ( #194 ) ) ;
#180 = AXIS2_PLACEMENT_3D ( 'NONE', #202, #133, #131 ) ;
#181 = DIRECTION ( 'NONE',  ( 0.0000000000000000000, -1.000000000000000000, 0.0000000000000000000 ) ) ;
#182 = EDGE_CURVE ( 'NONE', #171, #171, #132, .T. ) ;
#183 = DATE_AND_TIME ( #92, #48 ) ;
#184 = CARTESIAN_POINT ( 'NONE',  ( 3.491481338843136511E-15, 0.09999999999999853451, 1.000000000000000888 ) ) ;
#185 = ADVANCED_FACE ( 'NONE', ( #68, #152 ), #11, .T. ) ;
#186 = DIRECTION ( 'NONE',  ( 4.275831445896958607E-31, 1.000000000000000000, 1.224646799147353207E-16 ) ) ;
#187 = FACE_OUTER_BOUND ( 'NONE', #49, .T. ) ;
#188 = DIRECTION ( 'NONE',  ( 0.0000000000000000000, 1.000000000000000000, 0.0000000000000000000 ) ) ;
#189 = DIRECTION ( 'NONE',  ( -3.491481338843133355E-15, 1.224646799147353207E-16, -1.000000000000000000 ) ) ;
#190 = DATE_AND_TIME ( #160, #15 ) ;
#191 = CC_DESIGN_DATE_AND_TIME_ASSIGNMENT ( #1, #74, ( #77 ) ) ;
#192 = CALENDAR_DATE ( 2021, 8, 10 ) ;
#193 = APPROVAL_ROLE ( '' ) ;
#194 = ORIENTED_EDGE ( 'NONE', *, *, #67, .F. ) ;
#195 = EDGE_LOOP ( 'NONE', ( #109 ) ) ;
#196 = AXIS2_PLACEMENT_3D ( 'NONE', #197, #97, #147 ) ;
#197 = CARTESIAN_POINT ( 'NONE',  ( 8.703635638939706609E-15, -3.052824429445197247E-16, 2.492820323027580276 ) ) ;
#198 = EDGE_CURVE ( 'NONE', #104, #104, #210, .T. ) ;
#199 = CARTESIAN_POINT ( 'NONE',  ( 1.047444401652940007E-13, 2.999519565323652267E-33, 30.00000000000000000 ) ) ;
#200 = DIRECTION ( 'NONE',  ( -3.491481338843133355E-15, 1.224646799147353207E-16, -1.000000000000000000 ) ) ;
#201 = CARTESIAN_POINT ( 'NONE',  ( 3.491481338843136511E-15, 7.498798913309170010E-34, 1.000000000000000888 ) ) ;
#202 = CARTESIAN_POINT ( 'NONE',  ( 3.491481338843136511E-15, -1.224646799147354440E-16, 1.000000000000000888 ) ) ;
#203 = PERSON ( 'UNSPECIFIED', 'UNSPECIFIED', 'UNSPECIFIED', ('UNSPECIFIED'), ('UNSPECIFIED'), ('UNSPECIFIED') ) ;
#204 = COORDINATED_UNIVERSAL_TIME_OFFSET ( 1, 0, .AHEAD. ) ;
#205 = AXIS2_PLACEMENT_3D ( 'NONE', #70, #116, #33 ) ;
#206 = AXIS2_PLACEMENT_3D ( 'NONE', #217, #151, #52 ) ;
#207 = PERSON_AND_ORGANIZATION ( #203, #42 ) ;
#208 = APPROVAL ( #98, 'UNSPECIFIED' ) ;
#209 = PERSON_AND_ORGANIZATION_ROLE ( 'design_owner' ) ;
#210 = CIRCLE ( 'NONE', #112, 0.4999999999999991673 ) ;
#211 = PERSON_AND_ORGANIZATION_ROLE ( 'design_supplier' ) ;
#212 = EDGE_LOOP ( 'NONE', ( #62 ) ) ;
#213 = EDGE_LOOP ( 'NONE', ( #46 ) ) ;
#214 = ADVANCED_FACE ( 'NONE', ( #129, #51 ), #50, .T. ) ;
#215 = DIRECTION ( 'NONE',  ( 3.491481338843133355E-15, -1.224646799147353207E-16, 1.000000000000000000 ) ) ;
#216 = CONICAL_SURFACE ( 'NONE', #149, 0.4999999999999957812, 0.2617993877991429130 ) ;
#217 = CARTESIAN_POINT ( 'NONE',  ( 3.491481338843136511E-15, -1.224646799147354440E-16, 1.000000000000000888 ) ) ;
#218 = DIRECTION ( 'NONE',  ( 4.814824860968160573E-31, 1.000000000000000000, 1.355252715606900511E-16 ) ) ;
#219 = CC_DESIGN_PERSON_AND_ORGANIZATION_ASSIGNMENT ( #207, #76, ( #99 ) ) ;
#220 = VERTEX_POINT ( 'NONE', #130 ) ;
#221 = PLANE ( 'NONE',  #25 ) ;
#222 = PERSON_AND_ORGANIZATION ( #203, #42 ) ;
#223 = AXIS2_PLACEMENT_3D ( 'NONE', #157, #156, #59 ) ;
ENDSEC;
END-ISO-10303-21;
