ISO-10303-21;
HEADER;
FILE_DESCRIPTION (( 'STEP AP203' ),
    '1' );
FILE_NAME ('952429.step',
    '2021-11-30T06:45:06',
    ( '' ),
    ( '' ),
    'SwSTEP 2.0',
    'SolidWorks 2019',
    '' );
FILE_SCHEMA (( 'CONFIG_CONTROL_DESIGN' ));
ENDSEC;

DATA;
#1 = DIRECTION ( 'NONE',  ( 0.0000000000000000000, -1.000000000000000000, 0.0000000000000000000 ) ) ;
#2 = ADVANCED_FACE ( 'NONE', ( #9, #196 ), #29, .F. ) ;
#3 = CARTESIAN_POINT ( 'NONE',  ( 0.0000000000000000000, 0.0000000000000000000, 0.0000000000000000000 ) ) ;
#4 = AXIS2_PLACEMENT_3D ( 'NONE', #236, #281, #6 ) ;
#5 = APPROVAL_STATUS ( 'not_yet_approved' ) ;
#6 = DIRECTION ( 'NONE',  ( 4.275831445896958607E-31, 1.000000000000000000, 1.224646799147353207E-16 ) ) ;
#7 = CARTESIAN_POINT ( 'NONE',  ( 6.284666409917640040E-14, -2.204364238465235428E-15, 18.00000000000000000 ) ) ;
#8 = APPROVAL_DATE_TIME ( #54, #260 ) ;
#9 = FACE_OUTER_BOUND ( 'NONE', #60, .T. ) ;
#10 = CARTESIAN_POINT ( 'NONE',  ( 2.793185071074506684E-14, 7.974972644304411600E-33, 8.000000000000000000 ) ) ;
#11 = AXIS2_PLACEMENT_3D ( 'NONE', #32, #223, #39 ) ;
#12 = EDGE_LOOP ( 'NONE', ( #117 ) ) ;
#13 = APPROVAL_ROLE ( '' ) ;
#14 = EDGE_LOOP ( 'NONE', ( #247 ) ) ;
#15 = PRODUCT_DEFINITION ( 'UNKNOWN', '', #230, #62 ) ;
#16 = CIRCLE ( 'NONE', #104, 1.063499999999999002 ) ;
#17 = ORIENTED_EDGE ( 'NONE', *, *, #139, .T. ) ;
#18 = FACE_BOUND ( 'NONE', #123, .T. ) ;
#19 = DIRECTION ( 'NONE',  ( 0.0000000000000000000, 1.000000000000000000, 0.0000000000000000000 ) ) ;
#20 = FACE_OUTER_BOUND ( 'NONE', #77, .T. ) ;
#21 = CIRCLE ( 'NONE', #106, 0.9403844939755813259 ) ;
#22 = APPLICATION_PROTOCOL_DEFINITION ( 'international standard', 'config_control_design', 1994, #148 ) ;
#23 = CARTESIAN_POINT ( 'NONE',  ( 6.284666409917640040E-14, 0.9099999999999980327, 18.00000000000000000 ) ) ;
#24 = MANIFOLD_SOLID_BREP ( 'Corps-Déplacer/Copier1[2]', #160 ) ;
#25 = CARTESIAN_POINT ( 'NONE',  ( 7.514028720920313628E-14, -2.635566491334976481E-15, 21.52103360062640292 ) ) ;
#26 = ADVANCED_FACE ( 'NONE', ( #170 ), #140, .F. ) ;
#27 = PLANE ( 'NONE',  #82 ) ;
#28 = DIRECTION ( 'NONE',  ( -3.491481338843133355E-15, 1.224646799147353207E-16, -1.000000000000000000 ) ) ;
#29 = TOROIDAL_SURFACE ( 'NONE', #206, 2.909999999999999698, 2.000000000000000000 ) ;
#30 = MECHANICAL_CONTEXT ( 'NONE', #148, 'mechanical' ) ;
#31 = COORDINATED_UNIVERSAL_TIME_OFFSET ( 1, 0, .AHEAD. ) ;
#32 = CARTESIAN_POINT ( 'NONE',  ( 2.793185071074506684E-14, -9.797174393178825657E-16, 8.000000000000000000 ) ) ;
#33 = COORDINATED_UNIVERSAL_TIME_OFFSET ( 1, 0, .AHEAD. ) ;
#34 = EDGE_LOOP ( 'NONE', ( #53 ) ) ;
#35 = ADVANCED_FACE ( 'NONE', ( #284, #87 ), #161, .T. ) ;
#36 = AXIS2_PLACEMENT_3D ( 'NONE', #261, #147, #242 ) ;
#37 = COORDINATED_UNIVERSAL_TIME_OFFSET ( 1, 0, .AHEAD. ) ;
#38 = EDGE_LOOP ( 'NONE', ( #124 ) ) ;
#39 = DIRECTION ( 'NONE',  ( 0.0000000000000000000, 1.000000000000000000, 0.0000000000000000000 ) ) ;
#40 = CC_DESIGN_APPROVAL ( #92, ( #230 ) ) ;
#41 = EDGE_LOOP ( 'NONE', ( #99 ) ) ;
#42 = AXIS2_PLACEMENT_3D ( 'NONE', #302, #181, #158 ) ;
#43 = VERTEX_POINT ( 'NONE', #180 ) ;
#44 = FACE_OUTER_BOUND ( 'NONE', #12, .T. ) ;
#45 = LOCAL_TIME ( 7, 45, 6.000000000000000000, #93 ) ;
#46 =( LENGTH_UNIT ( ) NAMED_UNIT ( * ) SI_UNIT ( .MILLI., .METRE. ) );
#47 = CC_DESIGN_PERSON_AND_ORGANIZATION_ASSIGNMENT ( #225, #153, ( #238 ) ) ;
#48 = DIRECTION ( 'NONE',  ( -4.275831445896958607E-31, -1.000000000000000000, -1.224646799147353207E-16 ) ) ;
#49 = DIRECTION ( 'NONE',  ( 4.275831445896958607E-31, 1.000000000000000000, 1.224646799147353207E-16 ) ) ;
#50 = CARTESIAN_POINT ( 'NONE',  ( 0.0000000000000000000, 0.0000000000000000000, 0.0000000000000000000 ) ) ;
#51 = CARTESIAN_POINT ( 'NONE',  ( 2.793185071074506684E-14, -9.797174393178825657E-16, 8.000000000000000000 ) ) ;
#52 = PERSON_AND_ORGANIZATION_ROLE ( 'creator' ) ;
#53 = ORIENTED_EDGE ( 'NONE', *, *, #139, .F. ) ;
#54 = DATE_AND_TIME ( #168, #45 ) ;
#55 = ADVANCED_FACE ( 'NONE', ( #186, #237 ), #141, .T. ) ;
#56 = CARTESIAN_POINT ( 'NONE',  ( 6.284666409917640040E-14, -2.168404344971008868E-15, 18.00000000000000000 ) ) ;
#57 = CARTESIAN_POINT ( 'NONE',  ( 6.405924284287275164E-14, -2.246895775456749140E-15, 18.34729635533384595 ) ) ;
#58 = PERSON_AND_ORGANIZATION ( #113, #136 ) ;
#59 = EDGE_LOOP ( 'NONE', ( #241 ) ) ;
#60 = EDGE_LOOP ( 'NONE', ( #115 ) ) ;
#61 = ORIENTED_EDGE ( 'NONE', *, *, #297, .T. ) ;
#62 = DESIGN_CONTEXT ( 'detailed design', #70, 'design' ) ;
#63 = PLANE ( 'NONE',  #167 ) ;
#64 = AXIS2_PLACEMENT_3D ( 'NONE', #3, #103, #254 ) ;
#65 = CARTESIAN_POINT ( 'NONE',  ( 2.793185071074506684E-14, 1.063499999999999002, 8.000000000000000000 ) ) ;
#66 = ADVANCED_FACE ( 'NONE', ( #282 ), #27, .F. ) ;
#67 = APPROVAL ( #142, 'UNSPECIFIED' ) ;
#68 = DIRECTION ( 'NONE',  ( 3.491481338843133355E-15, -1.224646799147353207E-16, 1.000000000000000000 ) ) ;
#69 = CARTESIAN_POINT ( 'NONE',  ( 2.886013015238225878E-14, -1.012277099146737755E-15, 8.265869798961826831 ) ) ;
#70 = APPLICATION_CONTEXT ( 'configuration controlled 3d designs of mechanical parts and assemblies' ) ;
#71 = CIRCLE ( 'NONE', #245, 0.9191624327025946783 ) ;
#72 = FACE_BOUND ( 'NONE', #200, .T. ) ;
#73 = APPROVAL_DATE_TIME ( #201, #92 ) ;
#74 = AXIS2_PLACEMENT_3D ( 'NONE', #10, #267, #197 ) ;
#75 = ADVANCED_FACE ( 'NONE', ( #135, #234 ), #221, .T. ) ;
#76 = CALENDAR_DATE ( 2021, 30, 11 ) ;
#77 = EDGE_LOOP ( 'NONE', ( #292 ) ) ;
#78 = ORIENTED_EDGE ( 'NONE', *, *, #220, .F. ) ;
#79 = DIRECTION ( 'NONE',  ( -3.491481338843133355E-15, 1.224646799147353207E-16, -1.000000000000000000 ) ) ;
#80 = DIRECTION ( 'NONE',  ( -3.491481338843133355E-15, 1.224646799147353207E-16, -1.000000000000000000 ) ) ;
#81 = ORIENTED_EDGE ( 'NONE', *, *, #128, .F. ) ;
#82 = AXIS2_PLACEMENT_3D ( 'NONE', #184, #68, #48 ) ;
#83 = EDGE_CURVE ( 'NONE', #88, #88, #213, .T. ) ;
#84 = VERTEX_POINT ( 'NONE', #129 ) ;
#85 = DIRECTION ( 'NONE',  ( 0.0000000000000000000, 1.000000000000000000, 0.0000000000000000000 ) ) ;
#86 = DIRECTION ( 'NONE',  ( -3.491481338843133355E-15, 1.224646799147353207E-16, -1.000000000000000000 ) ) ;
#87 = FACE_OUTER_BOUND ( 'NONE', #264, .T. ) ;
#88 = VERTEX_POINT ( 'NONE', #187 ) ;
#89 = APPROVAL_PERSON_ORGANIZATION ( #202, #67, #13 ) ;
#90 = CARTESIAN_POINT ( 'NONE',  ( 1.745740669421566678E-13, -6.123233995736766085E-15, 50.00000000000000000 ) ) ;
#91 = CIRCLE ( 'NONE', #163, 0.9099999999999988098 ) ;
#92 = APPROVAL ( #222, 'UNSPECIFIED' ) ;
#93 = COORDINATED_UNIVERSAL_TIME_OFFSET ( 1, 0, .AHEAD. ) ;
#94 = CC_DESIGN_APPROVAL ( #67, ( #278 ) ) ;
#95 = PERSON_AND_ORGANIZATION ( #113, #136 ) ;
#96 = EDGE_LOOP ( 'NONE', ( #78 ) ) ;
#97 = CIRCLE ( 'NONE', #150, 1.063499999999999890 ) ;
#98 = PERSON_AND_ORGANIZATION_ROLE ( 'classification_officer' ) ;
#99 = ORIENTED_EDGE ( 'NONE', *, *, #162, .F. ) ;
#100 = EDGE_LOOP ( 'NONE', ( #266 ) ) ;
#101 = DIRECTION ( 'NONE',  ( 0.0000000000000000000, 1.000000000000000000, 0.0000000000000000000 ) ) ;
#102 = ADVANCED_FACE ( 'NONE', ( #105, #44 ), #227, .T. ) ;
#103 = DIRECTION ( 'NONE',  ( 0.0000000000000000000, 0.0000000000000000000, 1.000000000000000000 ) ) ;
#104 = AXIS2_PLACEMENT_3D ( 'NONE', #118, #79, #192 ) ;
#105 = FACE_BOUND ( 'NONE', #34, .T. ) ;
#106 = AXIS2_PLACEMENT_3D ( 'NONE', #57, #215, #173 ) ;
#107 = DIRECTION ( 'NONE',  ( 3.491481338843133355E-15, -1.224646799147353207E-16, 1.000000000000000000 ) ) ;
#108 = DIRECTION ( 'NONE',  ( -3.491481338843133355E-15, 1.224646799147353207E-16, -1.000000000000000000 ) ) ;
#109 = ADVANCED_FACE ( 'NONE', ( #229 ), #279, .T. ) ;
#110 = LOCAL_TIME ( 7, 45, 6.000000000000000000, #287 ) ;
#111 = CARTESIAN_POINT ( 'NONE',  ( -2.911459730010031511E-31, 1.021202605191238850E-32, -8.338752086742395767E-17 ) ) ;
#112 = CC_DESIGN_DATE_AND_TIME_ASSIGNMENT ( #243, #195, ( #278 ) ) ;
#113 = PERSON ( 'UNSPECIFIED', 'UNSPECIFIED', 'UNSPECIFIED', ('UNSPECIFIED'), ('UNSPECIFIED'), ('UNSPECIFIED') ) ;
#114 = PERSON_AND_ORGANIZATION_ROLE ( 'creator' ) ;
#115 = ORIENTED_EDGE ( 'NONE', *, *, #185, .F. ) ;
#116 = APPROVAL_DATE_TIME ( #263, #67 ) ;
#117 = ORIENTED_EDGE ( 'NONE', *, *, #128, .T. ) ;
#118 = CARTESIAN_POINT ( 'NONE',  ( 8.728703347107829444E-16, -3.061616997868381785E-17, 0.2499999999999998890 ) ) ;
#119 = AXIS2_PLACEMENT_3D ( 'NONE', #25, #107, #1 ) ;
#120 = ORIENTED_EDGE ( 'NONE', *, *, #83, .F. ) ;
#121 = DIRECTION ( 'NONE',  ( 0.0000000000000000000, 1.000000000000000000, 0.0000000000000000000 ) ) ;
#122 = CALENDAR_DATE ( 2021, 30, 11 ) ;
#123 = EDGE_LOOP ( 'NONE', ( #296 ) ) ;
#124 = ORIENTED_EDGE ( 'NONE', *, *, #253, .T. ) ;
#125 = UNCERTAINTY_MEASURE_WITH_UNIT (LENGTH_MEASURE( 1.000000000000000082E-05 ), #46, 'distance_accuracy_value', 'NONE');
#126 = CONICAL_SURFACE ( 'NONE', #36, 1.200000000000001732, 0.7853981633974453924 ) ;
#127 = CARTESIAN_POINT ( 'NONE',  ( 2.886013015238225878E-14, 0.9099999999999978106, 8.265869798961826831 ) ) ;
#128 = EDGE_CURVE ( 'NONE', #164, #164, #16, .T. ) ;
#129 = CARTESIAN_POINT ( 'NONE',  ( 7.514028720920313628E-14, 1.499999999999994005, 21.52103360062640292 ) ) ;
#130 = CLOSED_SHELL ( 'NONE', ( #66, #231, #55, #2, #75, #240, #198, #274 ) ) ;
#131 = CONICAL_SURFACE ( 'NONE', #303, 0.9099999999999988098, 0.5235987755982944858 ) ;
#132 = CARTESIAN_POINT ( 'NONE',  ( 8.728703347107833388E-16, 1.063499999999999002, 0.2500000000000000000 ) ) ;
#133 = APPROVAL_PERSON_ORGANIZATION ( #58, #92, #269 ) ;
#134 =( NAMED_UNIT ( * ) SI_UNIT ( $, .STERADIAN. ) SOLID_ANGLE_UNIT ( ) );
#135 = FACE_BOUND ( 'NONE', #100, .T. ) ;
#136 = ORGANIZATION ( 'UNSPECIFIED', 'UNSPECIFIED', '' ) ;
#137 = DIRECTION ( 'NONE',  ( -3.491481338843133355E-15, 1.224646799147353207E-16, -1.000000000000000000 ) ) ;
#138 = DIRECTION ( 'NONE',  ( 0.0000000000000000000, 1.000000000000000000, 0.0000000000000000000 ) ) ;
#139 = EDGE_CURVE ( 'NONE', #248, #248, #71, .T. ) ;
#140 = PLANE ( 'NONE',  #209 ) ;
#141 = CYLINDRICAL_SURFACE ( 'NONE', #4, 0.9099999999999995870 ) ;
#142 = APPROVAL_STATUS ( 'not_yet_approved' ) ;
#143 = EDGE_LOOP ( 'NONE', ( #219 ) ) ;
#144 = DIRECTION ( 'NONE',  ( -3.491481338843133355E-15, 1.224646799147353207E-16, -1.000000000000000000 ) ) ;
#145 = SECURITY_CLASSIFICATION_LEVEL ( 'unclassified' ) ;
#146 = EDGE_LOOP ( 'NONE', ( #155 ) ) ;
#147 = DIRECTION ( 'NONE',  ( -3.491481338843133355E-15, 1.224646799147353207E-16, -1.000000000000000000 ) ) ;
#148 = APPLICATION_CONTEXT ( 'configuration controlled 3d designs of mechanical parts and assemblies' ) ;
#149 = ORIENTED_EDGE ( 'NONE', *, *, #162, .T. ) ;
#150 = AXIS2_PLACEMENT_3D ( 'NONE', #51, #28, #286 ) ;
#151 = APPLICATION_PROTOCOL_DEFINITION ( 'international standard', 'config_control_design', 1994, #70 ) ;
#152 = EDGE_LOOP ( 'NONE', ( #204 ) ) ;
#153 = PERSON_AND_ORGANIZATION_ROLE ( 'design_owner' ) ;
#154 = CC_DESIGN_DATE_AND_TIME_ASSIGNMENT ( #193, #216, ( #15 ) ) ;
#155 = ORIENTED_EDGE ( 'NONE', *, *, #185, .T. ) ;
#156 = VERTEX_POINT ( 'NONE', #65 ) ;
#157 = VERTEX_POINT ( 'NONE', #177 ) ;
#158 = DIRECTION ( 'NONE',  ( -3.621871075481405877E-31, -1.000000000000000000, -1.019466076620127319E-16 ) ) ;
#159 = CYLINDRICAL_SURFACE ( 'NONE', #276, 1.499999999999999112 ) ;
#160 = CLOSED_SHELL ( 'NONE', ( #26, #102, #35, #109 ) ) ;
#161 = CYLINDRICAL_SURFACE ( 'NONE', #280, 1.063499999999999446 ) ;
#162 = EDGE_CURVE ( 'NONE', #43, #43, #97, .T. ) ;
#163 = AXIS2_PLACEMENT_3D ( 'NONE', #69, #285, #138 ) ;
#164 = VERTEX_POINT ( 'NONE', #132 ) ;
#165 = DIRECTION ( 'NONE',  ( 3.491481338843133355E-15, -1.224646799147353207E-16, 1.000000000000000000 ) ) ;
#166 = CARTESIAN_POINT ( 'NONE',  ( 1.735266225405037467E-13, -6.086494591762345225E-15, 49.70000000000000284 ) ) ;
#167 = AXIS2_PLACEMENT_3D ( 'NONE', #275, #86, #49 ) ;
#168 = CALENDAR_DATE ( 2021, 30, 11 ) ;
#169 = PERSON_AND_ORGANIZATION ( #113, #136 ) ;
#170 = FACE_OUTER_BOUND ( 'NONE', #252, .T. ) ;
#171 = LOCAL_TIME ( 7, 45, 6.000000000000000000, #31 ) ;
#172 = EDGE_CURVE ( 'NONE', #277, #277, #21, .T. ) ;
#173 = DIRECTION ( 'NONE',  ( 0.0000000000000000000, 1.000000000000000000, 0.0000000000000000000 ) ) ;
#174 = EDGE_LOOP ( 'NONE', ( #120 ) ) ;
#175 = CIRCLE ( 'NONE', #289, 1.499999999999996669 ) ;
#176 = CC_DESIGN_PERSON_AND_ORGANIZATION_ASSIGNMENT ( #95, #98, ( #278 ) ) ;
#177 = CARTESIAN_POINT ( 'NONE',  ( 1.745740669421566678E-13, 1.199999999999995515, 50.00000000000000000 ) ) ;
#178 = DIRECTION ( 'NONE',  ( -3.491481338843133355E-15, 1.224646799147353207E-16, -1.000000000000000000 ) ) ;
#179 = APPROVAL_PERSON_ORGANIZATION ( #291, #260, #246 ) ;
#180 = CARTESIAN_POINT ( 'NONE',  ( 2.793185071074506684E-14, 1.063499999999999002, 8.000000000000000000 ) ) ;
#181 = DIRECTION ( 'NONE',  ( 3.491481338843133355E-15, -1.224646799147353207E-16, 1.000000000000000000 ) ) ;
#182 = VERTEX_POINT ( 'NONE', #127 ) ;
#183 = CIRCLE ( 'NONE', #268, 1.200000000000001732 ) ;
#184 = CARTESIAN_POINT ( 'NONE',  ( 2.793185071074506684E-14, 7.974972644304411600E-33, 8.000000000000000000 ) ) ;
#185 = EDGE_CURVE ( 'NONE', #255, #255, #258, .T. ) ;
#186 = FACE_OUTER_BOUND ( 'NONE', #14, .T. ) ;
#187 = CARTESIAN_POINT ( 'NONE',  ( 1.735266225405037467E-13, 1.499999999999995559, 49.70000000000000284 ) ) ;
#188 = DIRECTION ( 'NONE',  ( 4.275831445896958607E-31, 1.000000000000000000, 1.224646799147353207E-16 ) ) ;
#189 = DIRECTION ( 'NONE',  ( -4.275831445896958607E-31, -1.000000000000000000, -1.224646799147353207E-16 ) ) ;
#190 = AXIS2_PLACEMENT_3D ( 'NONE', #7, #288, #121 ) ;
#191 = FACE_OUTER_BOUND ( 'NONE', #174, .T. ) ;
#192 = DIRECTION ( 'NONE',  ( 3.621871075481405877E-31, 1.000000000000000000, 1.019466076620127319E-16 ) ) ;
#193 = DATE_AND_TIME ( #262, #110 ) ;
#194 =( GEOMETRIC_REPRESENTATION_CONTEXT ( 3 ) GLOBAL_UNCERTAINTY_ASSIGNED_CONTEXT ( ( #125 ) ) GLOBAL_UNIT_ASSIGNED_CONTEXT ( ( #46, #298, #134 ) ) REPRESENTATION_CONTEXT ( 'NONE', 'WORKASPACE' ) );
#195 = DATE_TIME_ROLE ( 'classification_date' ) ;
#196 = FACE_OUTER_BOUND ( 'NONE', #59, .T. ) ;
#197 = DIRECTION ( 'NONE',  ( -4.275831445896958607E-31, -1.000000000000000000, -1.224646799147353207E-16 ) ) ;
#198 = ADVANCED_FACE ( 'NONE', ( #191, #72 ), #126, .T. ) ;
#199 = PERSON_AND_ORGANIZATION ( #113, #136 ) ;
#200 = EDGE_LOOP ( 'NONE', ( #61 ) ) ;
#201 = DATE_AND_TIME ( #76, #171 ) ;
#202 = PERSON_AND_ORGANIZATION ( #113, #136 ) ;
#203 = DIRECTION ( 'NONE',  ( -3.491481338843133355E-15, 1.224646799147353207E-16, -1.000000000000000000 ) ) ;
#204 = ORIENTED_EDGE ( 'NONE', *, *, #253, .F. ) ;
#205 = FACE_OUTER_BOUND ( 'NONE', #152, .T. ) ;
#206 = AXIS2_PLACEMENT_3D ( 'NONE', #56, #244, #188 ) ;
#207 = DIRECTION ( 'NONE',  ( 0.0000000000000000000, 1.000000000000000000, 0.0000000000000000000 ) ) ;
#208 = LOCAL_TIME ( 7, 45, 6.000000000000000000, #37 ) ;
#209 = AXIS2_PLACEMENT_3D ( 'NONE', #111, #165, #189 ) ;
#210 = ADVANCED_BREP_SHAPE_REPRESENTATION ( '952429', ( #228, #24, #64 ), #194 ) ;
#211 = PRODUCT_DEFINITION_SHAPE ( 'NONE', 'NONE',  #15 ) ;
#212 = CC_DESIGN_PERSON_AND_ORGANIZATION_ASSIGNMENT ( #239, #52, ( #15 ) ) ;
#213 = CIRCLE ( 'NONE', #235, 1.500000000000001554 ) ;
#214 = LOCAL_TIME ( 7, 45, 6.000000000000000000, #33 ) ;
#215 = DIRECTION ( 'NONE',  ( -3.491481338843133355E-15, 1.224646799147353207E-16, -1.000000000000000000 ) ) ;
#216 = DATE_TIME_ROLE ( 'creation_date' ) ;
#217 = CARTESIAN_POINT ( 'NONE',  ( -5.822919460020063021E-31, 2.042405210382477701E-32, -1.667750417348479153E-16 ) ) ;
#218 = PERSON_AND_ORGANIZATION_ROLE ( 'design_supplier' ) ;
#219 = ORIENTED_EDGE ( 'NONE', *, *, #297, .F. ) ;
#220 = EDGE_CURVE ( 'NONE', #156, #156, #300, .T. ) ;
#221 = CONICAL_SURFACE ( 'NONE', #119, 1.499999999999996669, 0.1745329251994260089 ) ;
#222 = APPROVAL_STATUS ( 'not_yet_approved' ) ;
#223 = DIRECTION ( 'NONE',  ( -3.491481338843133355E-15, 1.224646799147353207E-16, -1.000000000000000000 ) ) ;
#224 = CARTESIAN_POINT ( 'NONE',  ( -1.892735826383161356E-31, 0.9191624327025946783, -5.421010862427522170E-17 ) ) ;
#225 = PERSON_AND_ORGANIZATION ( #113, #136 ) ;
#226 = EDGE_LOOP ( 'NONE', ( #81 ) ) ;
#227 = CONICAL_SURFACE ( 'NONE', #42, 1.063499999999999002, 0.5235987755982922653 ) ;
#228 = MANIFOLD_SOLID_BREP ( 'Corps-Déplacer/Copier1[1]', #130 ) ;
#229 = FACE_OUTER_BOUND ( 'NONE', #41, .T. ) ;
#230 = PRODUCT_DEFINITION_FORMATION_WITH_SPECIFIED_SOURCE ( 'ANY', '', #238, .NOT_KNOWN. ) ;
#231 = ADVANCED_FACE ( 'NONE', ( #293, #18 ), #131, .T. ) ;
#232 = CC_DESIGN_PERSON_AND_ORGANIZATION_ASSIGNMENT ( #199, #218, ( #230 ) ) ;
#233 = CC_DESIGN_APPROVAL ( #260, ( #15 ) ) ;
#234 = FACE_OUTER_BOUND ( 'NONE', #38, .T. ) ;
#235 = AXIS2_PLACEMENT_3D ( 'NONE', #166, #178, #19 ) ;
#236 = CARTESIAN_POINT ( 'NONE',  ( 0.0000000000000000000, 0.0000000000000000000, 0.0000000000000000000 ) ) ;
#237 = FACE_OUTER_BOUND ( 'NONE', #146, .T. ) ;
#238 = PRODUCT ( '952429', '952429', '', ( #30 ) ) ;
#239 = PERSON_AND_ORGANIZATION ( #113, #136 ) ;
#240 = ADVANCED_FACE ( 'NONE', ( #205, #20 ), #159, .T. ) ;
#241 = ORIENTED_EDGE ( 'NONE', *, *, #172, .T. ) ;
#242 = DIRECTION ( 'NONE',  ( 0.0000000000000000000, 1.000000000000000000, 0.0000000000000000000 ) ) ;
#243 = DATE_AND_TIME ( #122, #208 ) ;
#244 = DIRECTION ( 'NONE',  ( -3.491481338843133355E-15, 1.224646799147353207E-16, -1.000000000000000000 ) ) ;
#245 = AXIS2_PLACEMENT_3D ( 'NONE', #217, #144, #265 ) ;
#246 = APPROVAL_ROLE ( '' ) ;
#247 = ORIENTED_EDGE ( 'NONE', *, *, #283, .F. ) ;
#248 = VERTEX_POINT ( 'NONE', #224 ) ;
#249 = EDGE_LOOP ( 'NONE', ( #270 ) ) ;
#250 = DIRECTION ( 'NONE',  ( -3.491481338843133355E-15, 1.224646799147353207E-16, -1.000000000000000000 ) ) ;
#251 = CARTESIAN_POINT ( 'NONE',  ( 0.0000000000000000000, 0.0000000000000000000, 0.0000000000000000000 ) ) ;
#252 = EDGE_LOOP ( 'NONE', ( #17 ) ) ;
#253 = EDGE_CURVE ( 'NONE', #84, #84, #175, .T. ) ;
#254 = DIRECTION ( 'NONE',  ( 1.000000000000000000, 0.0000000000000000000, 0.0000000000000000000 ) ) ;
#255 = VERTEX_POINT ( 'NONE', #23 ) ;
#256 = CARTESIAN_POINT ( 'NONE',  ( 7.514028720920313628E-14, -2.635566491334976481E-15, 21.52103360062640292 ) ) ;
#257 = DIRECTION ( 'NONE',  ( 4.275831445896958607E-31, 1.000000000000000000, 1.224646799147353207E-16 ) ) ;
#258 = CIRCLE ( 'NONE', #190, 0.9100000000000002531 ) ;
#259 = PRODUCT_RELATED_PRODUCT_CATEGORY ( 'detail', '', ( #238 ) ) ;
#260 = APPROVAL ( #5, 'UNSPECIFIED' ) ;
#261 = CARTESIAN_POINT ( 'NONE',  ( 1.745740669421566678E-13, -6.123233995736766085E-15, 50.00000000000000000 ) ) ;
#262 = CALENDAR_DATE ( 2021, 30, 11 ) ;
#263 = DATE_AND_TIME ( #290, #214 ) ;
#264 = EDGE_LOOP ( 'NONE', ( #149 ) ) ;
#265 = DIRECTION ( 'NONE',  ( 4.275831445896958607E-31, 1.000000000000000000, 1.224646799147353207E-16 ) ) ;
#266 = ORIENTED_EDGE ( 'NONE', *, *, #172, .F. ) ;
#267 = DIRECTION ( 'NONE',  ( 3.491481338843133355E-15, -1.224646799147353207E-16, 1.000000000000000000 ) ) ;
#268 = AXIS2_PLACEMENT_3D ( 'NONE', #90, #108, #85 ) ;
#269 = APPROVAL_ROLE ( '' ) ;
#270 = ORIENTED_EDGE ( 'NONE', *, *, #220, .T. ) ;
#271 = CARTESIAN_POINT ( 'NONE',  ( 2.886013015238225878E-14, -1.012277099146737755E-15, 8.265869798961826831 ) ) ;
#272 = CC_DESIGN_SECURITY_CLASSIFICATION ( #278, ( #230 ) ) ;
#273 = FACE_OUTER_BOUND ( 'NONE', #143, .T. ) ;
#274 = ADVANCED_FACE ( 'NONE', ( #273 ), #63, .F. ) ;
#275 = CARTESIAN_POINT ( 'NONE',  ( 1.745740669421566678E-13, 8.998558695971067645E-33, 50.00000000000000000 ) ) ;
#276 = AXIS2_PLACEMENT_3D ( 'NONE', #251, #80, #299 ) ;
#277 = VERTEX_POINT ( 'NONE', #301 ) ;
#278 = SECURITY_CLASSIFICATION ( '', '', #145 ) ;
#279 = PLANE ( 'NONE',  #74 ) ;
#280 = AXIS2_PLACEMENT_3D ( 'NONE', #50, #137, #257 ) ;
#281 = DIRECTION ( 'NONE',  ( -3.491481338843133355E-15, 1.224646799147353207E-16, -1.000000000000000000 ) ) ;
#282 = FACE_OUTER_BOUND ( 'NONE', #249, .T. ) ;
#283 = EDGE_CURVE ( 'NONE', #182, #182, #91, .T. ) ;
#284 = FACE_OUTER_BOUND ( 'NONE', #226, .T. ) ;
#285 = DIRECTION ( 'NONE',  ( -3.491481338843133355E-15, 1.224646799147353207E-16, -1.000000000000000000 ) ) ;
#286 = DIRECTION ( 'NONE',  ( 0.0000000000000000000, 1.000000000000000000, 0.0000000000000000000 ) ) ;
#287 = COORDINATED_UNIVERSAL_TIME_OFFSET ( 1, 0, .AHEAD. ) ;
#288 = DIRECTION ( 'NONE',  ( -3.491481338843133355E-15, 1.224646799147353207E-16, -1.000000000000000000 ) ) ;
#289 = AXIS2_PLACEMENT_3D ( 'NONE', #256, #203, #207 ) ;
#290 = CALENDAR_DATE ( 2021, 30, 11 ) ;
#291 = PERSON_AND_ORGANIZATION ( #113, #136 ) ;
#292 = ORIENTED_EDGE ( 'NONE', *, *, #83, .T. ) ;
#293 = FACE_OUTER_BOUND ( 'NONE', #96, .T. ) ;
#294 = SHAPE_DEFINITION_REPRESENTATION ( #211, #210 ) ;
#295 = CC_DESIGN_PERSON_AND_ORGANIZATION_ASSIGNMENT ( #169, #114, ( #230 ) ) ;
#296 = ORIENTED_EDGE ( 'NONE', *, *, #283, .T. ) ;
#297 = EDGE_CURVE ( 'NONE', #157, #157, #183, .T. ) ;
#298 =( NAMED_UNIT ( * ) PLANE_ANGLE_UNIT ( ) SI_UNIT ( $, .RADIAN. ) );
#299 = DIRECTION ( 'NONE',  ( 4.275831445896958607E-31, 1.000000000000000000, 1.224646799147353454E-16 ) ) ;
#300 = CIRCLE ( 'NONE', #11, 1.063499999999999890 ) ;
#301 = CARTESIAN_POINT ( 'NONE',  ( 6.405924284287275164E-14, 0.9403844939755789945, 18.34729635533384595 ) ) ;
#302 = CARTESIAN_POINT ( 'NONE',  ( 8.728703347107829444E-16, -3.061616997868381785E-17, 0.2499999999999998890 ) ) ;
#303 = AXIS2_PLACEMENT_3D ( 'NONE', #271, #250, #101 ) ;
ENDSEC;
END-ISO-10303-21;
