ISO-10303-21;
HEADER;
FILE_DESCRIPTION (( 'STEP AP203' ),
    '1' );
FILE_NAME ('952428.step',
    '2021-11-30T06:45:06',
    ( '' ),
    ( '' ),
    'SwSTEP 2.0',
    'SolidWorks 2019',
    '' );
FILE_SCHEMA (( 'CONFIG_CONTROL_DESIGN' ));
ENDSEC;

DATA;
#1 = EDGE_CURVE ( 'NONE', #157, #157, #173, .T. ) ;
#2 = ORIENTED_EDGE ( 'NONE', *, *, #298, .T. ) ;
#3 = PERSON_AND_ORGANIZATION ( #128, #207 ) ;
#4 = CC_DESIGN_APPROVAL ( #292, ( #66 ) ) ;
#5 = DATE_AND_TIME ( #149, #15 ) ;
#6 = CARTESIAN_POINT ( 'NONE',  ( 0.0000000000000000000, 0.9141624327025944519, 0.0000000000000000000 ) ) ;
#7 = APPROVAL_ROLE ( '' ) ;
#8 = DATE_TIME_ROLE ( 'creation_date' ) ;
#9 = AXIS2_PLACEMENT_3D ( 'NONE', #228, #279, #65 ) ;
#10 = ORIENTED_EDGE ( 'NONE', *, *, #1, .T. ) ;
#11 = CIRCLE ( 'NONE', #216, 0.9050000000000000266 ) ;
#12 = EDGE_CURVE ( 'NONE', #82, #82, #182, .T. ) ;
#13 = DIRECTION ( 'NONE',  ( -3.491481338843133355E-15, 1.224646799147353207E-16, -1.000000000000000000 ) ) ;
#14 = AXIS2_PLACEMENT_3D ( 'NONE', #290, #256, #150 ) ;
#15 = LOCAL_TIME ( 7, 45, 6.000000000000000000, #205 ) ;
#16 = CARTESIAN_POINT ( 'NONE',  ( 0.0000000000000000000, 0.0000000000000000000, 0.0000000000000000000 ) ) ;
#17 = FACE_OUTER_BOUND ( 'NONE', #78, .T. ) ;
#18 = CARTESIAN_POINT ( 'NONE',  ( 7.523929308240572061E-14, -2.639039149898704875E-15, 21.54939000972449392 ) ) ;
#19 = FACE_OUTER_BOUND ( 'NONE', #191, .T. ) ;
#20 = APPROVAL_PERSON_ORGANIZATION ( #255, #126, #44 ) ;
#21 = DIRECTION ( 'NONE',  ( -3.491481338843133355E-15, 1.224646799147353207E-16, -1.000000000000000000 ) ) ;
#22 = CARTESIAN_POINT ( 'NONE',  ( 6.284666409917640040E-14, -2.204364238465235428E-15, 18.00000000000000000 ) ) ;
#23 = VERTEX_POINT ( 'NONE', #204 ) ;
#24 = PERSON_AND_ORGANIZATION_ROLE ( 'classification_officer' ) ;
#25 = PERSON_AND_ORGANIZATION ( #128, #207 ) ;
#26 = CONICAL_SURFACE ( 'NONE', #220, 0.9049999999999988054, 0.5235987755982944858 ) ;
#27 = EDGE_LOOP ( 'NONE', ( #2 ) ) ;
#28 = APPROVAL_STATUS ( 'not_yet_approved' ) ;
#29 = EDGE_LOOP ( 'NONE', ( #84 ) ) ;
#30 = EDGE_LOOP ( 'NONE', ( #48 ) ) ;
#31 = EDGE_LOOP ( 'NONE', ( #233 ) ) ;
#32 = AXIS2_PLACEMENT_3D ( 'NONE', #246, #135, #37 ) ;
#33 = FACE_OUTER_BOUND ( 'NONE', #55, .T. ) ;
#34 = FACE_OUTER_BOUND ( 'NONE', #249, .T. ) ;
#35 = FACE_OUTER_BOUND ( 'NONE', #198, .T. ) ;
#36 = DIRECTION ( 'NONE',  ( -3.491481338843133355E-15, 1.224646799147353207E-16, -1.000000000000000000 ) ) ;
#37 = DIRECTION ( 'NONE',  ( -4.275831445896958607E-31, -1.000000000000000000, -1.224646799147353207E-16 ) ) ;
#38 = DIRECTION ( 'NONE',  ( -3.491481338843133355E-15, 1.224646799147353207E-16, -1.000000000000000000 ) ) ;
#39 = AXIS2_PLACEMENT_3D ( 'NONE', #59, #38, #156 ) ;
#40 = CYLINDRICAL_SURFACE ( 'NONE', #285, 1.499999999999999112 ) ;
#41 = EDGE_CURVE ( 'NONE', #88, #88, #302, .T. ) ;
#42 = CONICAL_SURFACE ( 'NONE', #58, 1.200000000000001732, 0.7853981633974453924 ) ;
#43 = PERSON_AND_ORGANIZATION_ROLE ( 'creator' ) ;
#44 = APPROVAL_ROLE ( '' ) ;
#45 = DIRECTION ( 'NONE',  ( -3.491481338843133355E-15, 1.224646799147353207E-16, -1.000000000000000000 ) ) ;
#46 = VERTEX_POINT ( 'NONE', #167 ) ;
#47 = DATE_AND_TIME ( #188, #276 ) ;
#48 = ORIENTED_EDGE ( 'NONE', *, *, #248, .T. ) ;
#49 = ORIENTED_EDGE ( 'NONE', *, *, #140, .T. ) ;
#50 = ADVANCED_FACE ( 'NONE', ( #124, #33 ), #40, .T. ) ;
#51 = CIRCLE ( 'NONE', #260, 1.200000000000001732 ) ;
#52 = CC_DESIGN_APPROVAL ( #126, ( #244 ) ) ;
#53 = CARTESIAN_POINT ( 'NONE',  ( 6.284666409917640040E-14, 0.9049999999999978062, 18.00000000000000000 ) ) ;
#54 = VERTEX_POINT ( 'NONE', #76 ) ;
#55 = EDGE_LOOP ( 'NONE', ( #293 ) ) ;
#56 = ADVANCED_FACE ( 'NONE', ( #35 ), #132, .F. ) ;
#57 = EDGE_LOOP ( 'NONE', ( #111 ) ) ;
#58 = AXIS2_PLACEMENT_3D ( 'NONE', #74, #263, #100 ) ;
#59 = CARTESIAN_POINT ( 'NONE',  ( 7.523929308240572061E-14, -2.639039149898704875E-15, 21.54939000972449392 ) ) ;
#60 = APPROVAL ( #114, 'UNSPECIFIED' ) ;
#61 = AXIS2_PLACEMENT_3D ( 'NONE', #242, #36, #129 ) ;
#62 = FACE_OUTER_BOUND ( 'NONE', #93, .T. ) ;
#63 = ORIENTED_EDGE ( 'NONE', *, *, #1, .F. ) ;
#64 = ORIENTED_EDGE ( 'NONE', *, *, #272, .T. ) ;
#65 = DIRECTION ( 'NONE',  ( 4.275831445896958607E-31, 1.000000000000000000, 1.224646799147353207E-16 ) ) ;
#66 = PRODUCT_DEFINITION ( 'UNKNOWN', '', #244, #170 ) ;
#67 = APPLICATION_PROTOCOL_DEFINITION ( 'international standard', 'config_control_design', 1994, #221 ) ;
#68 = CALENDAR_DATE ( 2021, 30, 11 ) ;
#69 = CARTESIAN_POINT ( 'NONE',  ( 1.735266225405037467E-13, -6.086494591762345225E-15, 49.70000000000000284 ) ) ;
#70 = SHAPE_DEFINITION_REPRESENTATION ( #178, #273 ) ;
#71 = VERTEX_POINT ( 'NONE', #262 ) ;
#72 = AXIS2_PLACEMENT_3D ( 'NONE', #299, #133, #268 ) ;
#73 = DIRECTION ( 'NONE',  ( 3.491481338843133355E-15, -1.224646799147353207E-16, 1.000000000000000000 ) ) ;
#74 = CARTESIAN_POINT ( 'NONE',  ( 1.745740669421566678E-13, -6.123233995736766085E-15, 50.00000000000000000 ) ) ;
#75 = CARTESIAN_POINT ( 'NONE',  ( 2.886013015238225878E-14, -1.012277099146737755E-15, 8.265869798961826831 ) ) ;
#76 = CARTESIAN_POINT ( 'NONE',  ( 2.886013015238225878E-14, 0.9049999999999978062, 8.265869798961826831 ) ) ;
#77 = ADVANCED_FACE ( 'NONE', ( #226, #17 ), #112, .T. ) ;
#78 = EDGE_LOOP ( 'NONE', ( #10 ) ) ;
#79 = DIRECTION ( 'NONE',  ( -3.491481338843133355E-15, 1.224646799147353207E-16, -1.000000000000000000 ) ) ;
#80 = DIRECTION ( 'NONE',  ( -3.491481338843133355E-15, 1.224646799147353207E-16, -1.000000000000000000 ) ) ;
#81 = DIRECTION ( 'NONE',  ( -4.275831445896958607E-31, -1.000000000000000000, -1.224646799147353207E-16 ) ) ;
#82 = VERTEX_POINT ( 'NONE', #274 ) ;
#83 = PRODUCT_RELATED_PRODUCT_CATEGORY ( 'detail', '', ( #222 ) ) ;
#84 = ORIENTED_EDGE ( 'NONE', *, *, #140, .F. ) ;
#85 = CIRCLE ( 'NONE', #224, 0.9049999999999988054 ) ;
#86 = FACE_OUTER_BOUND ( 'NONE', #257, .T. ) ;
#87 = EDGE_CURVE ( 'NONE', #46, #46, #281, .T. ) ;
#88 = VERTEX_POINT ( 'NONE', #253 ) ;
#89 = COORDINATED_UNIVERSAL_TIME_OFFSET ( 1, 0, .AHEAD. ) ;
#90 = APPROVAL_DATE_TIME ( #251, #126 ) ;
#91 = ADVANCED_FACE ( 'NONE', ( #301 ), #181, .F. ) ;
#92 = PERSON_AND_ORGANIZATION ( #128, #207 ) ;
#93 = EDGE_LOOP ( 'NONE', ( #196 ) ) ;
#94 = FACE_OUTER_BOUND ( 'NONE', #300, .T. ) ;
#95 = DIRECTION ( 'NONE',  ( -3.491481338843133355E-15, 1.224646799147353207E-16, -1.000000000000000000 ) ) ;
#96 = CC_DESIGN_DATE_AND_TIME_ASSIGNMENT ( #5, #146, ( #296 ) ) ;
#97 = CARTESIAN_POINT ( 'NONE',  ( 2.793185071074506684E-14, 7.937478649737864886E-33, 8.000000000000000000 ) ) ;
#98 = CLOSED_SHELL ( 'NONE', ( #91, #77, #152, #165 ) ) ;
#99 = AXIS2_PLACEMENT_3D ( 'NONE', #97, #174, #81 ) ;
#100 = DIRECTION ( 'NONE',  ( 0.0000000000000000000, 1.000000000000000000, 0.0000000000000000000 ) ) ;
#101 = ADVANCED_FACE ( 'NONE', ( #131, #227 ), #237, .T. ) ;
#102 = CARTESIAN_POINT ( 'NONE',  ( 6.405924284287273902E-14, -2.246895775456748746E-15, 18.34729635533384240 ) ) ;
#103 = DIRECTION ( 'NONE',  ( 3.491481338843133355E-15, -1.224646799147353207E-16, 1.000000000000000000 ) ) ;
#104 = AXIS2_PLACEMENT_3D ( 'NONE', #294, #21, #177 ) ;
#105 = CARTESIAN_POINT ( 'NONE',  ( 0.0000000000000000000, 0.0000000000000000000, 0.0000000000000000000 ) ) ;
#106 = CARTESIAN_POINT ( 'NONE',  ( 8.728703347107833388E-16, 1.058499999999998886, 0.2500000000000000000 ) ) ;
#107 = PERSON_AND_ORGANIZATION ( #128, #207 ) ;
#108 = DIRECTION ( 'NONE',  ( 3.491481338843133355E-15, -1.224646799147353207E-16, 1.000000000000000000 ) ) ;
#109 = EDGE_CURVE ( 'NONE', #23, #23, #240, .T. ) ;
#110 = PLANE ( 'NONE',  #14 ) ;
#111 = ORIENTED_EDGE ( 'NONE', *, *, #109, .F. ) ;
#112 = CONICAL_SURFACE ( 'NONE', #266, 1.058499999999998886, 0.5235987755982927094 ) ;
#113 = APPLICATION_PROTOCOL_DEFINITION ( 'international standard', 'config_control_design', 1994, #141 ) ;
#114 = APPROVAL_STATUS ( 'not_yet_approved' ) ;
#115 = DIRECTION ( 'NONE',  ( 1.000000000000000000, 0.0000000000000000000, 0.0000000000000000000 ) ) ;
#116 = EDGE_LOOP ( 'NONE', ( #143 ) ) ;
#117 = DIRECTION ( 'NONE',  ( 0.0000000000000000000, 1.000000000000000000, 0.0000000000000000000 ) ) ;
#118 = CC_DESIGN_SECURITY_CLASSIFICATION ( #296, ( #244 ) ) ;
#119 = CARTESIAN_POINT ( 'NONE',  ( 2.886013015238225878E-14, -1.012277099146737755E-15, 8.265869798961826831 ) ) ;
#120 = ADVANCED_FACE ( 'NONE', ( #19, #247 ), #161, .F. ) ;
#121 = EDGE_LOOP ( 'NONE', ( #64 ) ) ;
#122 = AXIS2_PLACEMENT_3D ( 'NONE', #18, #103, #199 ) ;
#123 = VERTEX_POINT ( 'NONE', #264 ) ;
#124 = FACE_OUTER_BOUND ( 'NONE', #160, .T. ) ;
#125 = FACE_OUTER_BOUND ( 'NONE', #27, .T. ) ;
#126 = APPROVAL ( #252, 'UNSPECIFIED' ) ;
#127 = DIRECTION ( 'NONE',  ( 3.638979583159636951E-31, 1.000000000000000000, 1.024281693420411490E-16 ) ) ;
#128 = PERSON ( 'UNSPECIFIED', 'UNSPECIFIED', 'UNSPECIFIED', ('UNSPECIFIED'), ('UNSPECIFIED'), ('UNSPECIFIED') ) ;
#129 = DIRECTION ( 'NONE',  ( 4.275831445896957731E-31, 1.000000000000000000, 1.224646799147353207E-16 ) ) ;
#130 = DIRECTION ( 'NONE',  ( -3.491481338843133355E-15, 1.224646799147353207E-16, -1.000000000000000000 ) ) ;
#131 = FACE_BOUND ( 'NONE', #283, .T. ) ;
#132 = PLANE ( 'NONE',  #186 ) ;
#133 = DIRECTION ( 'NONE',  ( -3.491481338843133355E-15, 1.224646799147353207E-16, -1.000000000000000000 ) ) ;
#134 = APPROVAL_PERSON_ORGANIZATION ( #166, #292, #7 ) ;
#135 = DIRECTION ( 'NONE',  ( 3.491481338843133355E-15, -1.224646799147353207E-16, 1.000000000000000000 ) ) ;
#136 = ORIENTED_EDGE ( 'NONE', *, *, #87, .F. ) ;
#137 = AXIS2_PLACEMENT_3D ( 'NONE', #69, #45, #219 ) ;
#138 = CC_DESIGN_APPROVAL ( #60, ( #296 ) ) ;
#139 = MANIFOLD_SOLID_BREP ( 'Corps-Déplacer/Copier1[2]', #98 ) ;
#140 = EDGE_CURVE ( 'NONE', #278, #278, #192, .T. ) ;
#141 = APPLICATION_CONTEXT ( 'configuration controlled 3d designs of mechanical parts and assemblies' ) ;
#142 = COORDINATED_UNIVERSAL_TIME_OFFSET ( 1, 0, .AHEAD. ) ;
#143 = ORIENTED_EDGE ( 'NONE', *, *, #12, .T. ) ;
#144 = CC_DESIGN_PERSON_AND_ORGANIZATION_ASSIGNMENT ( #92, #164, ( #66 ) ) ;
#145 = AXIS2_PLACEMENT_3D ( 'NONE', #209, #79, #229 ) ;
#146 = DATE_TIME_ROLE ( 'classification_date' ) ;
#147 = ORIENTED_EDGE ( 'NONE', *, *, #298, .F. ) ;
#148 = CARTESIAN_POINT ( 'NONE',  ( 1.745740669421566678E-13, -6.123233995736766085E-15, 50.00000000000000000 ) ) ;
#149 = CALENDAR_DATE ( 2021, 30, 11 ) ;
#150 = DIRECTION ( 'NONE',  ( 4.275831445896958607E-31, 1.000000000000000000, 1.224646799147353207E-16 ) ) ;
#151 = AXIS2_PLACEMENT_3D ( 'NONE', #102, #130, #271 ) ;
#152 = ADVANCED_FACE ( 'NONE', ( #203, #280 ), #155, .T. ) ;
#153 = CC_DESIGN_DATE_AND_TIME_ASSIGNMENT ( #163, #8, ( #66 ) ) ;
#154 = LOCAL_TIME ( 7, 45, 6.000000000000000000, #190 ) ;
#155 = CYLINDRICAL_SURFACE ( 'NONE', #295, 1.058499999999999552 ) ;
#156 = DIRECTION ( 'NONE',  ( 0.0000000000000000000, 1.000000000000000000, 0.0000000000000000000 ) ) ;
#157 = VERTEX_POINT ( 'NONE', #106 ) ;
#158 = CC_DESIGN_PERSON_AND_ORGANIZATION_ASSIGNMENT ( #3, #43, ( #244 ) ) ;
#159 = DIRECTION ( 'NONE',  ( 0.0000000000000000000, 1.000000000000000000, 0.0000000000000000000 ) ) ;
#160 = EDGE_LOOP ( 'NONE', ( #267 ) ) ;
#161 = TOROIDAL_SURFACE ( 'NONE', #104, 2.905000000000000249, 2.000000000000000000 ) ;
#162 = LOCAL_TIME ( 7, 45, 6.000000000000000000, #282 ) ;
#163 = DATE_AND_TIME ( #206, #154 ) ;
#164 = PERSON_AND_ORGANIZATION_ROLE ( 'creator' ) ;
#165 = ADVANCED_FACE ( 'NONE', ( #86 ), #183, .T. ) ;
#166 = PERSON_AND_ORGANIZATION ( #128, #207 ) ;
#167 = CARTESIAN_POINT ( 'NONE',  ( 2.793185071074506684E-14, 1.058499999999998886, 8.000000000000000000 ) ) ;
#168 = DATE_AND_TIME ( #68, #162 ) ;
#169 = DIRECTION ( 'NONE',  ( -3.638979583159636951E-31, -1.000000000000000000, -1.024281693420411490E-16 ) ) ;
#170 = DESIGN_CONTEXT ( 'detailed design', #221, 'design' ) ;
#171 = MECHANICAL_CONTEXT ( 'NONE', #141, 'mechanical' ) ;
#172 = ADVANCED_FACE ( 'NONE', ( #62 ), #110, .F. ) ;
#173 = CIRCLE ( 'NONE', #232, 1.058499999999998886 ) ;
#174 = DIRECTION ( 'NONE',  ( 3.491481338843133355E-15, -1.224646799147353207E-16, 1.000000000000000000 ) ) ;
#175 = CC_DESIGN_PERSON_AND_ORGANIZATION_ASSIGNMENT ( #25, #212, ( #244 ) ) ;
#176 = CYLINDRICAL_SURFACE ( 'NONE', #61, 0.9049999999999993605 ) ;
#177 = DIRECTION ( 'NONE',  ( 4.275831445896958607E-31, 1.000000000000000000, 1.224646799147353207E-16 ) ) ;
#178 = PRODUCT_DEFINITION_SHAPE ( 'NONE', 'NONE',  #66 ) ;
#179 = DIRECTION ( 'NONE',  ( -3.491481338843133355E-15, 1.224646799147353207E-16, -1.000000000000000000 ) ) ;
#180 = CARTESIAN_POINT ( 'NONE',  ( 2.793185071074506684E-14, 7.937478649737864886E-33, 8.000000000000000000 ) ) ;
#181 = PLANE ( 'NONE',  #32 ) ;
#182 = CIRCLE ( 'NONE', #39, 1.499999999999996669 ) ;
#183 = PLANE ( 'NONE',  #99 ) ;
#184 = UNCERTAINTY_MEASURE_WITH_UNIT (LENGTH_MEASURE( 1.000000000000000082E-05 ), #214, 'distance_accuracy_value', 'NONE');
#185 = EDGE_CURVE ( 'NONE', #71, #71, #51, .T. ) ;
#186 = AXIS2_PLACEMENT_3D ( 'NONE', #180, #73, #245 ) ;
#187 = APPROVAL_DATE_TIME ( #168, #292 ) ;
#188 = CALENDAR_DATE ( 2021, 30, 11 ) ;
#189 = VERTEX_POINT ( 'NONE', #53 ) ;
#190 = COORDINATED_UNIVERSAL_TIME_OFFSET ( 1, 0, .AHEAD. ) ;
#191 = EDGE_LOOP ( 'NONE', ( #147 ) ) ;
#192 = CIRCLE ( 'NONE', #9, 0.9141624327025944519 ) ;
#193 = APPROVAL_PERSON_ORGANIZATION ( #194, #60, #284 ) ;
#194 = PERSON_AND_ORGANIZATION ( #128, #207 ) ;
#195 = ORIENTED_EDGE ( 'NONE', *, *, #185, .T. ) ;
#196 = ORIENTED_EDGE ( 'NONE', *, *, #185, .F. ) ;
#197 = EDGE_LOOP ( 'NONE', ( #63 ) ) ;
#198 = EDGE_LOOP ( 'NONE', ( #200 ) ) ;
#199 = DIRECTION ( 'NONE',  ( 0.0000000000000000000, -1.000000000000000000, 0.0000000000000000000 ) ) ;
#200 = ORIENTED_EDGE ( 'NONE', *, *, #87, .T. ) ;
#201 =( GEOMETRIC_REPRESENTATION_CONTEXT ( 3 ) GLOBAL_UNCERTAINTY_ASSIGNED_CONTEXT ( ( #184 ) ) GLOBAL_UNIT_ASSIGNED_CONTEXT ( ( #214, #270, #211 ) ) REPRESENTATION_CONTEXT ( 'NONE', 'WORKASPACE' ) );
#202 = ORIENTED_EDGE ( 'NONE', *, *, #272, .F. ) ;
#203 = FACE_OUTER_BOUND ( 'NONE', #197, .T. ) ;
#204 = CARTESIAN_POINT ( 'NONE',  ( 1.735266225405037467E-13, 1.499999999999995559, 49.70000000000000284 ) ) ;
#205 = COORDINATED_UNIVERSAL_TIME_OFFSET ( 1, 0, .AHEAD. ) ;
#206 = CALENDAR_DATE ( 2021, 30, 11 ) ;
#207 = ORGANIZATION ( 'UNSPECIFIED', 'UNSPECIFIED', '' ) ;
#208 = PERSON_AND_ORGANIZATION_ROLE ( 'design_owner' ) ;
#209 = CARTESIAN_POINT ( 'NONE',  ( 2.793185071074506684E-14, -9.797174393178825657E-16, 8.000000000000000000 ) ) ;
#210 = PERSON_AND_ORGANIZATION ( #128, #207 ) ;
#211 =( NAMED_UNIT ( * ) SI_UNIT ( $, .STERADIAN. ) SOLID_ANGLE_UNIT ( ) );
#212 = PERSON_AND_ORGANIZATION_ROLE ( 'design_supplier' ) ;
#213 = CC_DESIGN_PERSON_AND_ORGANIZATION_ASSIGNMENT ( #107, #24, ( #296 ) ) ;
#214 =( LENGTH_UNIT ( ) NAMED_UNIT ( * ) SI_UNIT ( .MILLI., .METRE. ) );
#215 = EDGE_LOOP ( 'NONE', ( #195 ) ) ;
#216 = AXIS2_PLACEMENT_3D ( 'NONE', #22, #269, #159 ) ;
#217 = CARTESIAN_POINT ( 'NONE',  ( 0.0000000000000000000, 0.0000000000000000000, 0.0000000000000000000 ) ) ;
#218 = FACE_OUTER_BOUND ( 'NONE', #57, .T. ) ;
#219 = DIRECTION ( 'NONE',  ( 0.0000000000000000000, 1.000000000000000000, 0.0000000000000000000 ) ) ;
#220 = AXIS2_PLACEMENT_3D ( 'NONE', #119, #95, #259 ) ;
#221 = APPLICATION_CONTEXT ( 'configuration controlled 3d designs of mechanical parts and assemblies' ) ;
#222 = PRODUCT ( '952428', '952428', '', ( #171 ) ) ;
#223 = DIRECTION ( 'NONE',  ( 4.275831445896958607E-31, 1.000000000000000000, 1.224646799147353454E-16 ) ) ;
#224 = AXIS2_PLACEMENT_3D ( 'NONE', #75, #13, #291 ) ;
#225 = DIRECTION ( 'NONE',  ( 4.275831445896958607E-31, 1.000000000000000000, 1.224646799147353454E-16 ) ) ;
#226 = FACE_BOUND ( 'NONE', #29, .T. ) ;
#227 = FACE_OUTER_BOUND ( 'NONE', #116, .T. ) ;
#228 = CARTESIAN_POINT ( 'NONE',  ( -3.908804476407415856E-31, 1.371024051387678152E-32, -1.119526097109990061E-16 ) ) ;
#229 = DIRECTION ( 'NONE',  ( 0.0000000000000000000, 1.000000000000000000, 0.0000000000000000000 ) ) ;
#230 = DIRECTION ( 'NONE',  ( 0.0000000000000000000, 0.0000000000000000000, 1.000000000000000000 ) ) ;
#231 = CALENDAR_DATE ( 2021, 30, 11 ) ;
#232 = AXIS2_PLACEMENT_3D ( 'NONE', #297, #80, #127 ) ;
#233 = ORIENTED_EDGE ( 'NONE', *, *, #41, .T. ) ;
#234 = ADVANCED_FACE ( 'NONE', ( #94, #236 ), #26, .T. ) ;
#235 = ORIENTED_EDGE ( 'NONE', *, *, #248, .F. ) ;
#236 = FACE_BOUND ( 'NONE', #30, .T. ) ;
#237 = CONICAL_SURFACE ( 'NONE', #122, 1.499999999999996669, 0.1745329251994262032 ) ;
#238 = ADVANCED_FACE ( 'NONE', ( #218, #239 ), #42, .T. ) ;
#239 = FACE_BOUND ( 'NONE', #215, .T. ) ;
#240 = CIRCLE ( 'NONE', #137, 1.500000000000001554 ) ;
#241 = DIRECTION ( 'NONE',  ( -3.491481338843133355E-15, 1.224646799147353207E-16, -1.000000000000000000 ) ) ;
#242 = CARTESIAN_POINT ( 'NONE',  ( 0.0000000000000000000, 0.0000000000000000000, 0.0000000000000000000 ) ) ;
#243 = MANIFOLD_SOLID_BREP ( 'Corps-Déplacer/Copier1[1]', #288 ) ;
#244 = PRODUCT_DEFINITION_FORMATION_WITH_SPECIFIED_SOURCE ( 'ANY', '', #222, .NOT_KNOWN. ) ;
#245 = DIRECTION ( 'NONE',  ( -4.275831445896958607E-31, -1.000000000000000000, -1.224646799147353207E-16 ) ) ;
#246 = CARTESIAN_POINT ( 'NONE',  ( -1.954402238203707928E-31, 6.855120256938390759E-33, -5.597630485549950303E-17 ) ) ;
#247 = FACE_OUTER_BOUND ( 'NONE', #31, .T. ) ;
#248 = EDGE_CURVE ( 'NONE', #54, #54, #85, .T. ) ;
#249 = EDGE_LOOP ( 'NONE', ( #235 ) ) ;
#250 = AXIS2_PLACEMENT_3D ( 'NONE', #217, #230, #115 ) ;
#251 = DATE_AND_TIME ( #231, #261 ) ;
#252 = APPROVAL_STATUS ( 'not_yet_approved' ) ;
#253 = CARTESIAN_POINT ( 'NONE',  ( 6.405924284287273902E-14, 0.9353844939755778798, 18.34729635533384240 ) ) ;
#254 = SECURITY_CLASSIFICATION_LEVEL ( 'unclassified' ) ;
#255 = PERSON_AND_ORGANIZATION ( #128, #207 ) ;
#256 = DIRECTION ( 'NONE',  ( -3.491481338843133355E-15, 1.224646799147353207E-16, -1.000000000000000000 ) ) ;
#257 = EDGE_LOOP ( 'NONE', ( #202 ) ) ;
#258 = CC_DESIGN_PERSON_AND_ORGANIZATION_ASSIGNMENT ( #210, #208, ( #222 ) ) ;
#259 = DIRECTION ( 'NONE',  ( 0.0000000000000000000, 1.000000000000000000, 0.0000000000000000000 ) ) ;
#260 = AXIS2_PLACEMENT_3D ( 'NONE', #148, #287, #117 ) ;
#261 = LOCAL_TIME ( 7, 45, 6.000000000000000000, #142 ) ;
#262 = CARTESIAN_POINT ( 'NONE',  ( 1.745740669421566678E-13, 1.199999999999995515, 50.00000000000000000 ) ) ;
#263 = DIRECTION ( 'NONE',  ( -3.491481338843133355E-15, 1.224646799147353207E-16, -1.000000000000000000 ) ) ;
#264 = CARTESIAN_POINT ( 'NONE',  ( 2.793185071074506684E-14, 1.058499999999998886, 8.000000000000000000 ) ) ;
#265 = ADVANCED_FACE ( 'NONE', ( #34, #125 ), #176, .T. ) ;
#266 = AXIS2_PLACEMENT_3D ( 'NONE', #289, #108, #169 ) ;
#267 = ORIENTED_EDGE ( 'NONE', *, *, #12, .F. ) ;
#268 = DIRECTION ( 'NONE',  ( 0.0000000000000000000, 1.000000000000000000, 0.0000000000000000000 ) ) ;
#269 = DIRECTION ( 'NONE',  ( -3.491481338843133355E-15, 1.224646799147353207E-16, -1.000000000000000000 ) ) ;
#270 =( NAMED_UNIT ( * ) PLANE_ANGLE_UNIT ( ) SI_UNIT ( $, .RADIAN. ) );
#271 = DIRECTION ( 'NONE',  ( 0.0000000000000000000, 1.000000000000000000, 0.0000000000000000000 ) ) ;
#272 = EDGE_CURVE ( 'NONE', #123, #123, #275, .T. ) ;
#273 = ADVANCED_BREP_SHAPE_REPRESENTATION ( '952428', ( #243, #139, #250 ), #201 ) ;
#274 = CARTESIAN_POINT ( 'NONE',  ( 7.523929308240572061E-14, 1.499999999999994005, 21.54939000972449392 ) ) ;
#275 = CIRCLE ( 'NONE', #145, 1.058499999999999996 ) ;
#276 = LOCAL_TIME ( 7, 45, 6.000000000000000000, #89 ) ;
#277 = EDGE_LOOP ( 'NONE', ( #49 ) ) ;
#278 = VERTEX_POINT ( 'NONE', #6 ) ;
#279 = DIRECTION ( 'NONE',  ( -3.491481338843133355E-15, 1.224646799147353207E-16, -1.000000000000000000 ) ) ;
#280 = FACE_OUTER_BOUND ( 'NONE', #121, .T. ) ;
#281 = CIRCLE ( 'NONE', #72, 1.058499999999999996 ) ;
#282 = COORDINATED_UNIVERSAL_TIME_OFFSET ( 1, 0, .AHEAD. ) ;
#283 = EDGE_LOOP ( 'NONE', ( #303 ) ) ;
#284 = APPROVAL_ROLE ( '' ) ;
#285 = AXIS2_PLACEMENT_3D ( 'NONE', #16, #179, #223 ) ;
#286 = APPROVAL_DATE_TIME ( #47, #60 ) ;
#287 = DIRECTION ( 'NONE',  ( -3.491481338843133355E-15, 1.224646799147353207E-16, -1.000000000000000000 ) ) ;
#288 = CLOSED_SHELL ( 'NONE', ( #56, #234, #265, #120, #101, #50, #238, #172 ) ) ;
#289 = CARTESIAN_POINT ( 'NONE',  ( 8.728703347107829444E-16, -3.061616997868381785E-17, 0.2499999999999998890 ) ) ;
#290 = CARTESIAN_POINT ( 'NONE',  ( 1.745740669421566678E-13, 8.998558695971067645E-33, 50.00000000000000000 ) ) ;
#291 = DIRECTION ( 'NONE',  ( 0.0000000000000000000, 1.000000000000000000, 0.0000000000000000000 ) ) ;
#292 = APPROVAL ( #28, 'UNSPECIFIED' ) ;
#293 = ORIENTED_EDGE ( 'NONE', *, *, #109, .T. ) ;
#294 = CARTESIAN_POINT ( 'NONE',  ( 6.284666409917640040E-14, -2.168404344971008868E-15, 18.00000000000000000 ) ) ;
#295 = AXIS2_PLACEMENT_3D ( 'NONE', #105, #241, #225 ) ;
#296 = SECURITY_CLASSIFICATION ( '', '', #254 ) ;
#297 = CARTESIAN_POINT ( 'NONE',  ( 8.728703347107829444E-16, -3.061616997868381785E-17, 0.2499999999999998890 ) ) ;
#298 = EDGE_CURVE ( 'NONE', #189, #189, #11, .T. ) ;
#299 = CARTESIAN_POINT ( 'NONE',  ( 2.793185071074506684E-14, -9.797174393178825657E-16, 8.000000000000000000 ) ) ;
#300 = EDGE_LOOP ( 'NONE', ( #136 ) ) ;
#301 = FACE_OUTER_BOUND ( 'NONE', #277, .T. ) ;
#302 = CIRCLE ( 'NONE', #151, 0.9353844939755802113 ) ;
#303 = ORIENTED_EDGE ( 'NONE', *, *, #41, .F. ) ;
ENDSEC;
END-ISO-10303-21;
