ISO-10303-21;
HEADER;
FILE_DESCRIPTION (( 'STEP AP203' ),
    '1' );
FILE_NAME ('952423.step',
    '2021-11-01T09:46:05',
    ( '' ),
    ( '' ),
    'SwSTEP 2.0',
    'SolidWorks 2019',
    '' );
FILE_SCHEMA (( 'CONFIG_CONTROL_DESIGN' ));
ENDSEC;

DATA;
#1 = PERSON_AND_ORGANIZATION_ROLE ( 'classification_officer' ) ;
#2 = UNCERTAINTY_MEASURE_WITH_UNIT (LENGTH_MEASURE( 1.000000000000000082E-05 ), #85, 'distance_accuracy_value', 'NONE');
#3 = COORDINATED_UNIVERSAL_TIME_OFFSET ( 1, 0, .AHEAD. ) ;
#4 = CC_DESIGN_PERSON_AND_ORGANIZATION_ASSIGNMENT ( #184, #14, ( #134 ) ) ;
#5 = CALENDAR_DATE ( 2021, 1, 11 ) ;
#6 = EDGE_CURVE ( 'NONE', #237, #237, #50, .T. ) ;
#7 = DIRECTION ( 'NONE',  ( 3.491481338843133355E-15, -1.219242935835426903E-16, 1.000000000000000000 ) ) ;
#8 = APPLICATION_CONTEXT ( 'configuration controlled 3d designs of mechanical parts and assemblies' ) ;
#9 = DATE_AND_TIME ( #74, #144 ) ;
#10 = CC_DESIGN_PERSON_AND_ORGANIZATION_ASSIGNMENT ( #76, #59, ( #204 ) ) ;
#11 = DIRECTION ( 'NONE',  ( 3.491481338843133355E-15, -1.219242935835426903E-16, 1.000000000000000000 ) ) ;
#12 = CC_DESIGN_SECURITY_CLASSIFICATION ( #57, ( #134 ) ) ;
#13 = EDGE_CURVE ( 'NONE', #238, #238, #175, .T. ) ;
#14 = PERSON_AND_ORGANIZATION_ROLE ( 'design_supplier' ) ;
#15 = FACE_OUTER_BOUND ( 'NONE', #172, .T. ) ;
#16 = ORIENTED_EDGE ( 'NONE', *, *, #28, .T. ) ;
#17 = APPROVAL_DATE_TIME ( #207, #112 ) ;
#18 = COORDINATED_UNIVERSAL_TIME_OFFSET ( 1, 0, .AHEAD. ) ;
#19 = ORIENTED_EDGE ( 'NONE', *, *, #13, .T. ) ;
#20 = DIRECTION ( 'NONE',  ( 4.275831445896958607E-31, 1.000000000000000000, 1.224646799147353454E-16 ) ) ;
#21 = AXIS2_PLACEMENT_3D ( 'NONE', #174, #43, #137 ) ;
#22 = APPROVAL ( #52, 'UNSPECIFIED' ) ;
#23 = APPROVAL_PERSON_ORGANIZATION ( #220, #112, #170 ) ;
#24 = APPROVAL_ROLE ( '' ) ;
#25 = FACE_OUTER_BOUND ( 'NONE', #241, .T. ) ;
#26 = AXIS2_PLACEMENT_3D ( 'NONE', #70, #56, #243 ) ;
#27 = CARTESIAN_POINT ( 'NONE',  ( 3.414848735823252809E-14, -1.192482443420013130E-15, 9.780515501637273346 ) ) ;
#28 = EDGE_CURVE ( 'NONE', #89, #89, #169, .T. ) ;
#29 =( NAMED_UNIT ( * ) PLANE_ANGLE_UNIT ( ) SI_UNIT ( $, .RADIAN. ) );
#30 = CARTESIAN_POINT ( 'NONE',  ( 6.695397606605640712E-15, -2.338066694971420013E-16, 1.917638090205028067 ) ) ;
#31 = ADVANCED_BREP_SHAPE_REPRESENTATION ( '952423', ( #171, #103, #131 ), #182 ) ;
#32 = FACE_OUTER_BOUND ( 'NONE', #42, .T. ) ;
#33 = CARTESIAN_POINT ( 'NONE',  ( 1.316288464743861212E-13, 1.499999999999988232, 37.69999999999999574 ) ) ;
#34 = CARTESIAN_POINT ( 'NONE',  ( -4.766336212502138595E-30, -0.3250000000000000111, -1.365132947862587115E-15 ) ) ;
#35 = ORIENTED_EDGE ( 'NONE', *, *, #6, .T. ) ;
#36 = CONICAL_SURFACE ( 'NONE', #115, 2.499999999999992006, 0.2617993877991429685 ) ;
#37 = CC_DESIGN_APPROVAL ( #22, ( #134 ) ) ;
#38 = EDGE_LOOP ( 'NONE', ( #216 ) ) ;
#39 = DIRECTION ( 'NONE',  ( -4.275831445896958607E-31, -1.000000000000000000, -1.224646799147353207E-16 ) ) ;
#40 = EDGE_CURVE ( 'NONE', #218, #218, #80, .T. ) ;
#41 = AXIS2_PLACEMENT_3D ( 'NONE', #69, #106, #162 ) ;
#42 = EDGE_LOOP ( 'NONE', ( #197 ) ) ;
#43 = DIRECTION ( 'NONE',  ( -3.491481338843133355E-15, 1.224646799147353207E-16, -1.000000000000000000 ) ) ;
#44 = APPLICATION_CONTEXT ( 'configuration controlled 3d designs of mechanical parts and assemblies' ) ;
#45 = CALENDAR_DATE ( 2021, 1, 11 ) ;
#46 = DIRECTION ( 'NONE',  ( -4.256963957985708013E-31, -1.000000000000000000, -1.219242935835426903E-16 ) ) ;
#47 = ADVANCED_FACE ( 'NONE', ( #147 ), #223, .F. ) ;
#48 = FACE_OUTER_BOUND ( 'NONE', #167, .T. ) ;
#49 = CIRCLE ( 'NONE', #226, 0.3931483474218600005 ) ;
#50 = CIRCLE ( 'NONE', #142, 1.499999999999990674 ) ;
#51 = CARTESIAN_POINT ( 'NONE',  ( 4.888073874380383542E-15, -0.3250000000000000666, 1.399999999999999023 ) ) ;
#52 = APPROVAL_STATUS ( 'not_yet_approved' ) ;
#53 = PLANE ( 'NONE',  #148 ) ;
#54 = APPROVAL_STATUS ( 'not_yet_approved' ) ;
#55 = EDGE_LOOP ( 'NONE', ( #124 ) ) ;
#56 = DIRECTION ( 'NONE',  ( -3.491481338843133355E-15, 1.224646799147353207E-16, -1.000000000000000000 ) ) ;
#57 = SECURITY_CLASSIFICATION ( '', '', #236 ) ;
#58 = ORIENTED_EDGE ( 'NONE', *, *, #40, .F. ) ;
#59 = PERSON_AND_ORGANIZATION_ROLE ( 'creator' ) ;
#60 = DIRECTION ( 'NONE',  ( 0.0000000000000000000, -1.000000000000000000, 0.0000000000000000000 ) ) ;
#61 = ORIENTED_EDGE ( 'NONE', *, *, #40, .T. ) ;
#62 = DATE_AND_TIME ( #155, #95 ) ;
#63 = CARTESIAN_POINT ( 'NONE',  ( 4.888073874380383542E-15, -1.706940110169596530E-16, 1.399999999999999023 ) ) ;
#64 = DIRECTION ( 'NONE',  ( 0.0000000000000000000, 1.000000000000000000, 0.0000000000000000000 ) ) ;
#65 = AXIS2_PLACEMENT_3D ( 'NONE', #72, #219, #222 ) ;
#66 = APPROVAL_PERSON_ORGANIZATION ( #205, #22, #199 ) ;
#67 = CC_DESIGN_DATE_AND_TIME_ASSIGNMENT ( #99, #81, ( #204 ) ) ;
#68 = CIRCLE ( 'NONE', #191, 0.3249999999999999556 ) ;
#69 = CARTESIAN_POINT ( 'NONE',  ( 4.888073874380383542E-15, 0.0000000000000000000, 1.399999999999999023 ) ) ;
#70 = CARTESIAN_POINT ( 'NONE',  ( 1.326762908760390423E-13, 8.998558695971017012E-33, 38.00000000000000000 ) ) ;
#71 = CARTESIAN_POINT ( 'NONE',  ( 1.326762908760390423E-13, 1.199999999999987521, 38.00000000000000000 ) ) ;
#72 = CARTESIAN_POINT ( 'NONE',  ( 1.326762908760390423E-13, -4.653657836759941941E-15, 38.00000000000000000 ) ) ;
#73 = APPLICATION_PROTOCOL_DEFINITION ( 'international standard', 'config_control_design', 1994, #8 ) ;
#74 = CALENDAR_DATE ( 2021, 1, 11 ) ;
#75 = ORIENTED_EDGE ( 'NONE', *, *, #97, .T. ) ;
#76 = PERSON_AND_ORGANIZATION ( #157, #229 ) ;
#77 = SHAPE_DEFINITION_REPRESENTATION ( #210, #31 ) ;
#78 = PERSON_AND_ORGANIZATION ( #157, #229 ) ;
#79 = CALENDAR_DATE ( 2021, 1, 11 ) ;
#80 = CIRCLE ( 'NONE', #211, 0.3249999999999999556 ) ;
#81 = DATE_TIME_ROLE ( 'creation_date' ) ;
#82 = PERSON_AND_ORGANIZATION ( #157, #229 ) ;
#83 = ADVANCED_FACE ( 'NONE', ( #165 ), #121, .F. ) ;
#84 = FACE_OUTER_BOUND ( 'NONE', #91, .T. ) ;
#85 =( LENGTH_UNIT ( ) NAMED_UNIT ( * ) SI_UNIT ( .MILLI., .METRE. ) );
#86 = APPROVAL_DATE_TIME ( #9, #22 ) ;
#87 = DIRECTION ( 'NONE',  ( 0.0000000000000000000, -1.000000000000000000, 0.0000000000000000000 ) ) ;
#88 = DIRECTION ( 'NONE',  ( 1.000000000000000000, 0.0000000000000000000, 0.0000000000000000000 ) ) ;
#89 = VERTEX_POINT ( 'NONE', #71 ) ;
#90 = ADVANCED_FACE ( 'NONE', ( #114, #32 ), #109, .T. ) ;
#91 = EDGE_LOOP ( 'NONE', ( #58 ) ) ;
#92 = ORIENTED_EDGE ( 'NONE', *, *, #168, .F. ) ;
#93 = CARTESIAN_POINT ( 'NONE',  ( 6.695397606605640712E-15, -0.3931483474218602225, 1.917638090205028067 ) ) ;
#94 = CARTESIAN_POINT ( 'NONE',  ( -4.627984883867603649E-30, 1.616115719718652215E-31, -1.325507552447935736E-15 ) ) ;
#95 = LOCAL_TIME ( 10, 46, 5.000000000000000000, #3 ) ;
#96 = DATE_AND_TIME ( #5, #178 ) ;
#97 = EDGE_CURVE ( 'NONE', #193, #193, #202, .T. ) ;
#98 = AXIS2_PLACEMENT_3D ( 'NONE', #163, #119, #20 ) ;
#99 = DATE_AND_TIME ( #79, #127 ) ;
#100 = FACE_OUTER_BOUND ( 'NONE', #242, .T. ) ;
#101 = DIRECTION ( 'NONE',  ( 0.0000000000000000000, -1.000000000000000000, 0.0000000000000000000 ) ) ;
#102 = AXIS2_PLACEMENT_3D ( 'NONE', #94, #196, #213 ) ;
#103 = MANIFOLD_SOLID_BREP ( 'Corps-Déplacer/Copier1[2]', #146 ) ;
#104 = DIRECTION ( 'NONE',  ( 0.0000000000000000000, 0.0000000000000000000, 1.000000000000000000 ) ) ;
#105 = DIRECTION ( 'NONE',  ( -4.275831445896958607E-31, -1.000000000000000000, -1.224646799147353207E-16 ) ) ;
#106 = DIRECTION ( 'NONE',  ( 3.491481338843133355E-15, -1.219242935835426903E-16, 1.000000000000000000 ) ) ;
#107 = DIRECTION ( 'NONE',  ( 3.491481338843133355E-15, -1.219242935835426903E-16, 1.000000000000000000 ) ) ;
#108 = CC_DESIGN_APPROVAL ( #112, ( #204 ) ) ;
#109 = CYLINDRICAL_SURFACE ( 'NONE', #98, 1.499999999999990674 ) ;
#110 = CARTESIAN_POINT ( 'NONE',  ( 4.888073874380385909E-15, -2.023844055306280203E-16, 1.399999999999999689 ) ) ;
#111 = PERSON_AND_ORGANIZATION ( #157, #229 ) ;
#112 = APPROVAL ( #54, 'UNSPECIFIED' ) ;
#113 = DIRECTION ( 'NONE',  ( -3.491481338843133355E-15, 1.219242935835426903E-16, -1.000000000000000000 ) ) ;
#114 = FACE_OUTER_BOUND ( 'NONE', #120, .T. ) ;
#115 = AXIS2_PLACEMENT_3D ( 'NONE', #27, #160, #87 ) ;
#116 = DIRECTION ( 'NONE',  ( -3.491481338843133355E-15, 1.224646799147353207E-16, -1.000000000000000000 ) ) ;
#117 = CONICAL_SURFACE ( 'NONE', #215, 1.199999999999992184, 0.7853981633974468357 ) ;
#118 = DIRECTION ( 'NONE',  ( 3.491481338843133355E-15, -1.224646799147353207E-16, 1.000000000000000000 ) ) ;
#119 = DIRECTION ( 'NONE',  ( -3.491481338843133355E-15, 1.224646799147353207E-16, -1.000000000000000000 ) ) ;
#120 = EDGE_LOOP ( 'NONE', ( #19 ) ) ;
#121 = PLANE ( 'NONE',  #177 ) ;
#122 = ORIENTED_EDGE ( 'NONE', *, *, #154, .T. ) ;
#123 = VERTEX_POINT ( 'NONE', #201 ) ;
#124 = ORIENTED_EDGE ( 'NONE', *, *, #13, .F. ) ;
#125 = ADVANCED_FACE ( 'NONE', ( #15 ), #53, .T. ) ;
#126 = PLANE ( 'NONE',  #129 ) ;
#127 = LOCAL_TIME ( 10, 46, 5.000000000000000000, #173 ) ;
#128 = CC_DESIGN_DATE_AND_TIME_ASSIGNMENT ( #96, #228, ( #57 ) ) ;
#129 = AXIS2_PLACEMENT_3D ( 'NONE', #179, #145, #158 ) ;
#130 = CARTESIAN_POINT ( 'NONE',  ( 4.888073874380383542E-15, -1.706940110169596530E-16, 1.399999999999999023 ) ) ;
#131 = AXIS2_PLACEMENT_3D ( 'NONE', #183, #104, #88 ) ;
#132 = CARTESIAN_POINT ( 'NONE',  ( 2.111810160799099713E-14, -7.374547850892755944E-16, 6.048464694068296232 ) ) ;
#133 = ORIENTED_EDGE ( 'NONE', *, *, #168, .T. ) ;
#134 = PRODUCT_DEFINITION_FORMATION_WITH_SPECIFIED_SOURCE ( 'ANY', '', #234, .NOT_KNOWN. ) ;
#135 = CC_DESIGN_PERSON_AND_ORGANIZATION_ASSIGNMENT ( #82, #152, ( #234 ) ) ;
#136 = DESIGN_CONTEXT ( 'detailed design', #8, 'design' ) ;
#137 = DIRECTION ( 'NONE',  ( 0.0000000000000000000, 1.000000000000000000, 0.0000000000000000000 ) ) ;
#138 = ADVANCED_FACE ( 'NONE', ( #186, #161 ), #153, .F. ) ;
#139 = APPROVAL_STATUS ( 'not_yet_approved' ) ;
#140 = PERSON_AND_ORGANIZATION_ROLE ( 'creator' ) ;
#141 = PERSON_AND_ORGANIZATION ( #157, #229 ) ;
#142 = AXIS2_PLACEMENT_3D ( 'NONE', #132, #113, #60 ) ;
#143 = CLOSED_SHELL ( 'NONE', ( #90, #185, #47, #239, #138, #83 ) ) ;
#144 = LOCAL_TIME ( 10, 46, 5.000000000000000000, #189 ) ;
#145 = DIRECTION ( 'NONE',  ( 3.491481338843133355E-15, -1.224646799147353207E-16, 1.000000000000000000 ) ) ;
#146 = CLOSED_SHELL ( 'NONE', ( #125, #208, #159 ) ) ;
#147 = FACE_OUTER_BOUND ( 'NONE', #195, .T. ) ;
#148 = AXIS2_PLACEMENT_3D ( 'NONE', #110, #118, #105 ) ;
#149 = ORIENTED_EDGE ( 'NONE', *, *, #97, .F. ) ;
#150 = PRODUCT_RELATED_PRODUCT_CATEGORY ( 'detail', '', ( #234 ) ) ;
#151 = EDGE_LOOP ( 'NONE', ( #92 ) ) ;
#152 = PERSON_AND_ORGANIZATION_ROLE ( 'design_owner' ) ;
#153 = TOROIDAL_SURFACE ( 'NONE', #41, 2.324999999999999734, 2.000000000000000000 ) ;
#154 = EDGE_CURVE ( 'NONE', #166, #166, #49, .T. ) ;
#155 = CALENDAR_DATE ( 2021, 1, 11 ) ;
#156 = APPROVAL ( #139, 'UNSPECIFIED' ) ;
#157 = PERSON ( 'UNSPECIFIED', 'UNSPECIFIED', 'UNSPECIFIED', ('UNSPECIFIED'), ('UNSPECIFIED'), ('UNSPECIFIED') ) ;
#158 = DIRECTION ( 'NONE',  ( -4.275831445896958607E-31, -1.000000000000000000, -1.224646799147353207E-16 ) ) ;
#159 = ADVANCED_FACE ( 'NONE', ( #100 ), #126, .F. ) ;
#160 = DIRECTION ( 'NONE',  ( 3.491481338843133355E-15, -1.219242935835426903E-16, 1.000000000000000000 ) ) ;
#161 = FACE_OUTER_BOUND ( 'NONE', #38, .T. ) ;
#162 = DIRECTION ( 'NONE',  ( -4.318363482617522516E-31, -1.000000000000000000, -1.219242935835426903E-16 ) ) ;
#163 = CARTESIAN_POINT ( 'NONE',  ( 0.0000000000000000000, 0.0000000000000000000, 0.0000000000000000000 ) ) ;
#164 = DIRECTION ( 'NONE',  ( 0.0000000000000000000, -1.000000000000000000, 0.0000000000000000000 ) ) ;
#165 = FACE_OUTER_BOUND ( 'NONE', #151, .T. ) ;
#166 = VERTEX_POINT ( 'NONE', #93 ) ;
#167 = EDGE_LOOP ( 'NONE', ( #75 ) ) ;
#168 = EDGE_CURVE ( 'NONE', #123, #123, #68, .T. ) ;
#169 = CIRCLE ( 'NONE', #65, 1.199999999999992184 ) ;
#170 = APPROVAL_ROLE ( '' ) ;
#171 = MANIFOLD_SOLID_BREP ( 'Corps-Déplacer/Copier1[1]', #143 ) ;
#172 = EDGE_LOOP ( 'NONE', ( #61 ) ) ;
#173 = COORDINATED_UNIVERSAL_TIME_OFFSET ( 1, 0, .AHEAD. ) ;
#174 = CARTESIAN_POINT ( 'NONE',  ( 1.316288464743861212E-13, -4.616918432785521081E-15, 37.69999999999999574 ) ) ;
#175 = CIRCLE ( 'NONE', #21, 1.499999999999992895 ) ;
#176 = COORDINATED_UNIVERSAL_TIME_OFFSET ( 1, 0, .AHEAD. ) ;
#177 = AXIS2_PLACEMENT_3D ( 'NONE', #198, #188, #39 ) ;
#178 = LOCAL_TIME ( 10, 46, 5.000000000000000000, #176 ) ;
#179 = CARTESIAN_POINT ( 'NONE',  ( -1.924129419174264339E-30, 6.748937501461144163E-32, -5.510925685805913103E-16 ) ) ;
#180 = FACE_BOUND ( 'NONE', #200, .T. ) ;
#181 = DIRECTION ( 'NONE',  ( 3.491481338843133355E-15, -1.219242935835426903E-16, 1.000000000000000000 ) ) ;
#182 =( GEOMETRIC_REPRESENTATION_CONTEXT ( 3 ) GLOBAL_UNCERTAINTY_ASSIGNED_CONTEXT ( ( #2 ) ) GLOBAL_UNIT_ASSIGNED_CONTEXT ( ( #85, #29, #212 ) ) REPRESENTATION_CONTEXT ( 'NONE', 'WORKASPACE' ) );
#183 = CARTESIAN_POINT ( 'NONE',  ( 0.0000000000000000000, 0.0000000000000000000, 0.0000000000000000000 ) ) ;
#184 = PERSON_AND_ORGANIZATION ( #157, #229 ) ;
#185 = ADVANCED_FACE ( 'NONE', ( #231, #233 ), #117, .T. ) ;
#186 = FACE_OUTER_BOUND ( 'NONE', #227, .T. ) ;
#187 = MECHANICAL_CONTEXT ( 'NONE', #44, 'mechanical' ) ;
#188 = DIRECTION ( 'NONE',  ( 3.491481338843133355E-15, -1.224646799147353207E-16, 1.000000000000000000 ) ) ;
#189 = COORDINATED_UNIVERSAL_TIME_OFFSET ( 1, 0, .AHEAD. ) ;
#190 = CARTESIAN_POINT ( 'NONE',  ( 2.111810160799099713E-14, -1.499999999999991340, 6.048464694068296232 ) ) ;
#191 = AXIS2_PLACEMENT_3D ( 'NONE', #63, #7, #101 ) ;
#192 = APPROVAL_PERSON_ORGANIZATION ( #78, #156, #24 ) ;
#193 = VERTEX_POINT ( 'NONE', #34 ) ;
#194 = CC_DESIGN_PERSON_AND_ORGANIZATION_ASSIGNMENT ( #141, #1, ( #57 ) ) ;
#195 = EDGE_LOOP ( 'NONE', ( #221 ) ) ;
#196 = DIRECTION ( 'NONE',  ( 3.491481338843133355E-15, -1.219242935835426903E-16, 1.000000000000000000 ) ) ;
#197 = ORIENTED_EDGE ( 'NONE', *, *, #6, .F. ) ;
#198 = CARTESIAN_POINT ( 'NONE',  ( 4.888073874380385909E-15, -2.023844055306280203E-16, 1.399999999999999689 ) ) ;
#199 = APPROVAL_ROLE ( '' ) ;
#200 = EDGE_LOOP ( 'NONE', ( #122 ) ) ;
#201 = CARTESIAN_POINT ( 'NONE',  ( 4.888073874380383542E-15, -0.3250000000000000666, 1.399999999999999023 ) ) ;
#202 = CIRCLE ( 'NONE', #102, 0.3250000000000000111 ) ;
#203 = CC_DESIGN_APPROVAL ( #156, ( #57 ) ) ;
#204 = PRODUCT_DEFINITION ( 'UNKNOWN', '', #134, #136 ) ;
#205 = PERSON_AND_ORGANIZATION ( #157, #229 ) ;
#206 = CYLINDRICAL_SURFACE ( 'NONE', #240, 0.3250000000000000111 ) ;
#207 = DATE_AND_TIME ( #45, #232 ) ;
#208 = ADVANCED_FACE ( 'NONE', ( #48, #84 ), #206, .T. ) ;
#209 = CARTESIAN_POINT ( 'NONE',  ( 1.326762908760390423E-13, -4.653657836759941941E-15, 38.00000000000000000 ) ) ;
#210 = PRODUCT_DEFINITION_SHAPE ( 'NONE', 'NONE',  #204 ) ;
#211 = AXIS2_PLACEMENT_3D ( 'NONE', #130, #107, #225 ) ;
#212 =( NAMED_UNIT ( * ) SI_UNIT ( $, .STERADIAN. ) SOLID_ANGLE_UNIT ( ) );
#213 = DIRECTION ( 'NONE',  ( -4.256963957985697503E-31, -1.000000000000000000, -1.219242935835428628E-16 ) ) ;
#214 = APPLICATION_PROTOCOL_DEFINITION ( 'international standard', 'config_control_design', 1994, #44 ) ;
#215 = AXIS2_PLACEMENT_3D ( 'NONE', #209, #116, #64 ) ;
#216 = ORIENTED_EDGE ( 'NONE', *, *, #154, .F. ) ;
#217 = CC_DESIGN_PERSON_AND_ORGANIZATION_ASSIGNMENT ( #111, #140, ( #134 ) ) ;
#218 = VERTEX_POINT ( 'NONE', #51 ) ;
#219 = DIRECTION ( 'NONE',  ( -3.491481338843133355E-15, 1.224646799147353207E-16, -1.000000000000000000 ) ) ;
#220 = PERSON_AND_ORGANIZATION ( #157, #229 ) ;
#221 = ORIENTED_EDGE ( 'NONE', *, *, #28, .F. ) ;
#222 = DIRECTION ( 'NONE',  ( 0.0000000000000000000, 1.000000000000000000, 0.0000000000000000000 ) ) ;
#223 = PLANE ( 'NONE',  #26 ) ;
#224 = EDGE_LOOP ( 'NONE', ( #16 ) ) ;
#225 = DIRECTION ( 'NONE',  ( 0.0000000000000000000, -1.000000000000000000, 0.0000000000000000000 ) ) ;
#226 = AXIS2_PLACEMENT_3D ( 'NONE', #30, #11, #164 ) ;
#227 = EDGE_LOOP ( 'NONE', ( #133 ) ) ;
#228 = DATE_TIME_ROLE ( 'classification_date' ) ;
#229 = ORGANIZATION ( 'UNSPECIFIED', 'UNSPECIFIED', '' ) ;
#230 = APPROVAL_DATE_TIME ( #62, #156 ) ;
#231 = FACE_OUTER_BOUND ( 'NONE', #55, .T. ) ;
#232 = LOCAL_TIME ( 10, 46, 5.000000000000000000, #18 ) ;
#233 = FACE_BOUND ( 'NONE', #224, .T. ) ;
#234 = PRODUCT ( '952423', '952423', '', ( #187 ) ) ;
#235 = CARTESIAN_POINT ( 'NONE',  ( 0.0000000000000000000, 0.0000000000000000000, 0.0000000000000000000 ) ) ;
#236 = SECURITY_CLASSIFICATION_LEVEL ( 'unclassified' ) ;
#237 = VERTEX_POINT ( 'NONE', #190 ) ;
#238 = VERTEX_POINT ( 'NONE', #33 ) ;
#239 = ADVANCED_FACE ( 'NONE', ( #180, #25 ), #36, .T. ) ;
#240 = AXIS2_PLACEMENT_3D ( 'NONE', #235, #181, #46 ) ;
#241 = EDGE_LOOP ( 'NONE', ( #35 ) ) ;
#242 = EDGE_LOOP ( 'NONE', ( #149 ) ) ;
#243 = DIRECTION ( 'NONE',  ( 4.275831445896958607E-31, 1.000000000000000000, 1.224646799147353207E-16 ) ) ;
ENDSEC;
END-ISO-10303-21;
