ISO-10303-21;
HEADER;
FILE_DESCRIPTION (( 'STEP AP203' ),
    '1' );
FILE_NAME ('952422.step',
    '2021-11-01T09:46:04',
    ( '' ),
    ( '' ),
    'SwSTEP 2.0',
    'SolidWorks 2019',
    '' );
FILE_SCHEMA (( 'CONFIG_CONTROL_DESIGN' ));
ENDSEC;

DATA;
#1 = CLOSED_SHELL ( 'NONE', ( #146, #58, #28, #199, #76, #97 ) ) ;
#2 = DIRECTION ( 'NONE',  ( 3.491481338843133355E-15, -1.224646799147353207E-16, 1.000000000000000000 ) ) ;
#3 = DESIGN_CONTEXT ( 'detailed design', #54, 'design' ) ;
#4 = ORIENTED_EDGE ( 'NONE', *, *, #222, .T. ) ;
#5 = APPROVAL ( #228, 'UNSPECIFIED' ) ;
#6 = AXIS2_PLACEMENT_3D ( 'NONE', #149, #67, #87 ) ;
#7 = EDGE_LOOP ( 'NONE', ( #180 ) ) ;
#8 = MECHANICAL_CONTEXT ( 'NONE', #43, 'mechanical' ) ;
#9 = DIRECTION ( 'NONE',  ( 0.0000000000000000000, -1.000000000000000000, 0.0000000000000000000 ) ) ;
#10 = EDGE_LOOP ( 'NONE', ( #59 ) ) ;
#11 = CIRCLE ( 'NONE', #241, 1.499999999999990674 ) ;
#12 = SECURITY_CLASSIFICATION ( '', '', #204 ) ;
#13 = APPROVAL_STATUS ( 'not_yet_approved' ) ;
#14 = FACE_OUTER_BOUND ( 'NONE', #19, .T. ) ;
#15 = CARTESIAN_POINT ( 'NONE',  ( 4.189777606611758449E-15, -1.734723475976811532E-16, 1.199999999999999734 ) ) ;
#16 = ORIENTED_EDGE ( 'NONE', *, *, #222, .F. ) ;
#17 = APPROVAL ( #13, 'UNSPECIFIED' ) ;
#18 = PERSON_AND_ORGANIZATION ( #158, #182 ) ;
#19 = EDGE_LOOP ( 'NONE', ( #4 ) ) ;
#20 = FACE_OUTER_BOUND ( 'NONE', #10, .T. ) ;
#21 = CALENDAR_DATE ( 2021, 1, 11 ) ;
#22 = EDGE_CURVE ( 'NONE', #170, #170, #100, .T. ) ;
#23 = DIRECTION ( 'NONE',  ( 3.491481338843133355E-15, -1.219242935835426903E-16, 1.000000000000000000 ) ) ;
#24 = CARTESIAN_POINT ( 'NONE',  ( -1.924129419174264339E-30, 6.748937501461144163E-32, -5.510925685805913103E-16 ) ) ;
#25 = AXIS2_PLACEMENT_3D ( 'NONE', #15, #231, #31 ) ;
#26 = CIRCLE ( 'NONE', #134, 1.199999999999992184 ) ;
#27 = PLANE ( 'NONE',  #163 ) ;
#28 = ADVANCED_FACE ( 'NONE', ( #94 ), #53, .F. ) ;
#29 = DIRECTION ( 'NONE',  ( -3.491481338843133355E-15, 1.224646799147353207E-16, -1.000000000000000000 ) ) ;
#30 = DIRECTION ( 'NONE',  ( -4.256963957985709765E-31, -1.000000000000000000, -1.219242935835426903E-16 ) ) ;
#31 = DIRECTION ( 'NONE',  ( -4.275831445896958607E-31, -1.000000000000000000, -1.224646799147353207E-16 ) ) ;
#32 = AXIS2_PLACEMENT_3D ( 'NONE', #140, #29, #120 ) ;
#33 = APPROVAL_ROLE ( '' ) ;
#34 = DIRECTION ( 'NONE',  ( -4.275831445896958607E-31, -1.000000000000000000, -1.224646799147353207E-16 ) ) ;
#35 = APPROVAL_DATE_TIME ( #111, #5 ) ;
#36 = CALENDAR_DATE ( 2021, 1, 11 ) ;
#37 = APPROVAL_STATUS ( 'not_yet_approved' ) ;
#38 = PLANE ( 'NONE',  #233 ) ;
#39 = CALENDAR_DATE ( 2021, 1, 11 ) ;
#40 = CARTESIAN_POINT ( 'NONE',  ( 1.326762908760390423E-13, 8.998558695971017012E-33, 38.00000000000000000 ) ) ;
#41 = LOCAL_TIME ( 10, 46, 4.000000000000000000, #50 ) ;
#42 = EDGE_CURVE ( 'NONE', #172, #172, #93, .T. ) ;
#43 = APPLICATION_CONTEXT ( 'configuration controlled 3d designs of mechanical parts and assemblies' ) ;
#44 =( GEOMETRIC_REPRESENTATION_CONTEXT ( 3 ) GLOBAL_UNCERTAINTY_ASSIGNED_CONTEXT ( ( #101 ) ) GLOBAL_UNIT_ASSIGNED_CONTEXT ( ( #152, #209, #48 ) ) REPRESENTATION_CONTEXT ( 'NONE', 'WORKASPACE' ) );
#45 = APPLICATION_PROTOCOL_DEFINITION ( 'international standard', 'config_control_design', 1994, #54 ) ;
#46 = ORIENTED_EDGE ( 'NONE', *, *, #103, .F. ) ;
#47 = AXIS2_PLACEMENT_3D ( 'NONE', #232, #102, #30 ) ;
#48 =( NAMED_UNIT ( * ) SI_UNIT ( $, .STERADIAN. ) SOLID_ANGLE_UNIT ( ) );
#49 = MANIFOLD_SOLID_BREP ( 'Corps-Déplacer/Copier1[1]', #1 ) ;
#50 = COORDINATED_UNIVERSAL_TIME_OFFSET ( 1, 0, .AHEAD. ) ;
#51 = AXIS2_PLACEMENT_3D ( 'NONE', #210, #113, #197 ) ;
#52 = CARTESIAN_POINT ( 'NONE',  ( 1.326762908760390423E-13, 1.199999999999987521, 38.00000000000000000 ) ) ;
#53 = PLANE ( 'NONE',  #168 ) ;
#54 = APPLICATION_CONTEXT ( 'configuration controlled 3d designs of mechanical parts and assemblies' ) ;
#55 = VERTEX_POINT ( 'NONE', #239 ) ;
#56 = DATE_AND_TIME ( #39, #212 ) ;
#57 = FACE_OUTER_BOUND ( 'NONE', #184, .T. ) ;
#58 = ADVANCED_FACE ( 'NONE', ( #82, #178 ), #216, .T. ) ;
#59 = ORIENTED_EDGE ( 'NONE', *, *, #22, .T. ) ;
#60 = DIRECTION ( 'NONE',  ( 0.0000000000000000000, 1.000000000000000000, 0.0000000000000000000 ) ) ;
#61 = CONICAL_SURFACE ( 'NONE', #147, 2.499999999999992006, 0.2617993877991429130 ) ;
#62 = DIRECTION ( 'NONE',  ( 3.491481338843133355E-15, -1.219242935835426903E-16, 1.000000000000000000 ) ) ;
#63 = FACE_OUTER_BOUND ( 'NONE', #224, .T. ) ;
#64 = AXIS2_PLACEMENT_3D ( 'NONE', #176, #79, #131 ) ;
#65 = PERSON_AND_ORGANIZATION_ROLE ( 'design_owner' ) ;
#66 = ORIENTED_EDGE ( 'NONE', *, *, #103, .T. ) ;
#67 = DIRECTION ( 'NONE',  ( 0.0000000000000000000, 0.0000000000000000000, 1.000000000000000000 ) ) ;
#68 = CC_DESIGN_DATE_AND_TIME_ASSIGNMENT ( #151, #173, ( #12 ) ) ;
#69 = EDGE_LOOP ( 'NONE', ( #92 ) ) ;
#70 = APPROVAL_PERSON_ORGANIZATION ( #185, #17, #135 ) ;
#71 = APPROVAL_ROLE ( '' ) ;
#72 = ORIENTED_EDGE ( 'NONE', *, *, #42, .F. ) ;
#73 = COORDINATED_UNIVERSAL_TIME_OFFSET ( 1, 0, .AHEAD. ) ;
#74 = CARTESIAN_POINT ( 'NONE',  ( 5.997101338837014041E-15, -0.3431483474218605112, 1.717638090205027890 ) ) ;
#75 = EDGE_LOOP ( 'NONE', ( #203 ) ) ;
#76 = ADVANCED_FACE ( 'NONE', ( #20, #242 ), #200, .F. ) ;
#77 = DIRECTION ( 'NONE',  ( -4.319081605712631913E-31, -1.000000000000000000, -1.219242935835426903E-16 ) ) ;
#78 = VERTEX_POINT ( 'NONE', #74 ) ;
#79 = DIRECTION ( 'NONE',  ( 3.491481338843133355E-15, -1.219242935835426903E-16, 1.000000000000000000 ) ) ;
#80 = FACE_OUTER_BOUND ( 'NONE', #7, .T. ) ;
#81 = COORDINATED_UNIVERSAL_TIME_OFFSET ( 1, 0, .AHEAD. ) ;
#82 = FACE_OUTER_BOUND ( 'NONE', #166, .T. ) ;
#83 = CC_DESIGN_APPROVAL ( #5, ( #128 ) ) ;
#84 = DIRECTION ( 'NONE',  ( -4.275831445896958607E-31, -1.000000000000000000, -1.224646799147353207E-16 ) ) ;
#85 = CC_DESIGN_PERSON_AND_ORGANIZATION_ASSIGNMENT ( #167, #65, ( #181 ) ) ;
#86 = EDGE_LOOP ( 'NONE', ( #66 ) ) ;
#87 = DIRECTION ( 'NONE',  ( 1.000000000000000000, 0.0000000000000000000, 0.0000000000000000000 ) ) ;
#88 = EDGE_LOOP ( 'NONE', ( #129 ) ) ;
#89 = EDGE_CURVE ( 'NONE', #55, #55, #11, .T. ) ;
#90 = COORDINATED_UNIVERSAL_TIME_OFFSET ( 1, 0, .AHEAD. ) ;
#91 = CARTESIAN_POINT ( 'NONE',  ( 4.189777606611756871E-15, -0.2750000000000004108, 1.199999999999999067 ) ) ;
#92 = ORIENTED_EDGE ( 'NONE', *, *, #171, .T. ) ;
#93 = CIRCLE ( 'NONE', #51, 0.2750000000000000777 ) ;
#94 = FACE_OUTER_BOUND ( 'NONE', #88, .T. ) ;
#95 = ADVANCED_FACE ( 'NONE', ( #57 ), #38, .F. ) ;
#96 = CARTESIAN_POINT ( 'NONE',  ( 2.107132462773444370E-14, -7.358213092891038493E-16, 6.035067234446744422 ) ) ;
#97 = ADVANCED_FACE ( 'NONE', ( #80 ), #27, .F. ) ;
#98 = AXIS2_PLACEMENT_3D ( 'NONE', #175, #240, #77 ) ;
#99 = SHAPE_DEFINITION_REPRESENTATION ( #118, #215 ) ;
#100 = CIRCLE ( 'NONE', #64, 0.2750000000000002442 ) ;
#101 = UNCERTAINTY_MEASURE_WITH_UNIT (LENGTH_MEASURE( 1.000000000000000082E-05 ), #152, 'distance_accuracy_value', 'NONE');
#102 = DIRECTION ( 'NONE',  ( 3.491481338843133355E-15, -1.219242935835426903E-16, 1.000000000000000000 ) ) ;
#103 = EDGE_CURVE ( 'NONE', #207, #207, #159, .T. ) ;
#104 = AXIS2_PLACEMENT_3D ( 'NONE', #153, #226, #194 ) ;
#105 = DATE_AND_TIME ( #189, #119 ) ;
#106 = APPLICATION_PROTOCOL_DEFINITION ( 'international standard', 'config_control_design', 1994, #43 ) ;
#107 = CC_DESIGN_PERSON_AND_ORGANIZATION_ASSIGNMENT ( #174, #132, ( #128 ) ) ;
#108 = DATE_AND_TIME ( #36, #41 ) ;
#109 = CARTESIAN_POINT ( 'NONE',  ( 4.189777606611756871E-15, -0.2750000000000004108, 1.199999999999999067 ) ) ;
#110 = DIRECTION ( 'NONE',  ( 4.275831445896958607E-31, 1.000000000000000000, 1.224646799147353207E-16 ) ) ;
#111 = DATE_AND_TIME ( #148, #169 ) ;
#112 = EDGE_CURVE ( 'NONE', #78, #78, #114, .T. ) ;
#113 = DIRECTION ( 'NONE',  ( 3.491481338843133355E-15, -1.219242935835426903E-16, 1.000000000000000000 ) ) ;
#114 = CIRCLE ( 'NONE', #138, 0.3431483474218602892 ) ;
#115 = DIRECTION ( 'NONE',  ( -3.491481338843133355E-15, 1.224646799147353207E-16, -1.000000000000000000 ) ) ;
#116 = APPROVAL_PERSON_ORGANIZATION ( #234, #5, #33 ) ;
#117 = CC_DESIGN_DATE_AND_TIME_ASSIGNMENT ( #105, #154, ( #164 ) ) ;
#118 = PRODUCT_DEFINITION_SHAPE ( 'NONE', 'NONE',  #164 ) ;
#119 = LOCAL_TIME ( 10, 46, 4.000000000000000000, #90 ) ;
#120 = DIRECTION ( 'NONE',  ( 4.275831445896958607E-31, 1.000000000000000000, 1.224646799147353454E-16 ) ) ;
#121 = CARTESIAN_POINT ( 'NONE',  ( 4.189777606611756871E-15, -1.463091523002511100E-16, 1.199999999999999067 ) ) ;
#122 = FACE_OUTER_BOUND ( 'NONE', #141, .T. ) ;
#123 = FACE_BOUND ( 'NONE', #220, .T. ) ;
#124 = CC_DESIGN_PERSON_AND_ORGANIZATION_ASSIGNMENT ( #238, #208, ( #12 ) ) ;
#125 = CARTESIAN_POINT ( 'NONE',  ( 1.326762908760390423E-13, -4.653657836759941941E-15, 38.00000000000000000 ) ) ;
#126 = AXIS2_PLACEMENT_3D ( 'NONE', #230, #160, #60 ) ;
#127 = DIRECTION ( 'NONE',  ( -3.491481338843133355E-15, 1.224646799147353207E-16, -1.000000000000000000 ) ) ;
#128 = PRODUCT_DEFINITION_FORMATION_WITH_SPECIFIED_SOURCE ( 'ANY', '', #181, .NOT_KNOWN. ) ;
#129 = ORIENTED_EDGE ( 'NONE', *, *, #171, .F. ) ;
#130 = PERSON_AND_ORGANIZATION ( #158, #182 ) ;
#131 = DIRECTION ( 'NONE',  ( 0.0000000000000000000, -1.000000000000000000, 0.0000000000000000000 ) ) ;
#132 = PERSON_AND_ORGANIZATION_ROLE ( 'design_supplier' ) ;
#133 = VERTEX_POINT ( 'NONE', #109 ) ;
#134 = AXIS2_PLACEMENT_3D ( 'NONE', #125, #127, #196 ) ;
#135 = APPROVAL_ROLE ( '' ) ;
#136 = DIRECTION ( 'NONE',  ( 3.491481338843133355E-15, -1.224646799147353207E-16, 1.000000000000000000 ) ) ;
#137 = CARTESIAN_POINT ( 'NONE',  ( 5.997101338837014041E-15, -2.094218107804334090E-16, 1.717638090205027890 ) ) ;
#138 = AXIS2_PLACEMENT_3D ( 'NONE', #137, #23, #195 ) ;
#139 = CARTESIAN_POINT ( 'NONE',  ( 3.410171037797597781E-14, -1.190848967619841582E-15, 9.767118042015722423 ) ) ;
#140 = CARTESIAN_POINT ( 'NONE',  ( 0.0000000000000000000, 0.0000000000000000000, 0.0000000000000000000 ) ) ;
#141 = EDGE_LOOP ( 'NONE', ( #143 ) ) ;
#142 = CLOSED_SHELL ( 'NONE', ( #211, #161, #95 ) ) ;
#143 = ORIENTED_EDGE ( 'NONE', *, *, #42, .T. ) ;
#144 = FACE_OUTER_BOUND ( 'NONE', #205, .T. ) ;
#145 = EDGE_LOOP ( 'NONE', ( #235 ) ) ;
#146 = ADVANCED_FACE ( 'NONE', ( #177, #144 ), #162, .T. ) ;
#147 = AXIS2_PLACEMENT_3D ( 'NONE', #139, #62, #165 ) ;
#148 = CALENDAR_DATE ( 2021, 1, 11 ) ;
#149 = CARTESIAN_POINT ( 'NONE',  ( 0.0000000000000000000, 0.0000000000000000000, 0.0000000000000000000 ) ) ;
#150 = ORIENTED_EDGE ( 'NONE', *, *, #112, .T. ) ;
#151 = DATE_AND_TIME ( #21, #198 ) ;
#152 =( LENGTH_UNIT ( ) NAMED_UNIT ( * ) SI_UNIT ( .MILLI., .METRE. ) );
#153 = CARTESIAN_POINT ( 'NONE',  ( 1.326762908760390423E-13, -4.653657836759941941E-15, 38.00000000000000000 ) ) ;
#154 = DATE_TIME_ROLE ( 'creation_date' ) ;
#155 = VERTEX_POINT ( 'NONE', #52 ) ;
#156 = AXIS2_PLACEMENT_3D ( 'NONE', #121, #186, #9 ) ;
#157 = CARTESIAN_POINT ( 'NONE',  ( 4.189777606611758449E-15, -1.734723475976811532E-16, 1.199999999999999734 ) ) ;
#158 = PERSON ( 'UNSPECIFIED', 'UNSPECIFIED', 'UNSPECIFIED', ('UNSPECIFIED'), ('UNSPECIFIED'), ('UNSPECIFIED') ) ;
#159 = CIRCLE ( 'NONE', #126, 1.499999999999992895 ) ;
#160 = DIRECTION ( 'NONE',  ( -3.491481338843133355E-15, 1.224646799147353207E-16, -1.000000000000000000 ) ) ;
#161 = ADVANCED_FACE ( 'NONE', ( #122, #63 ), #202, .T. ) ;
#162 = CYLINDRICAL_SURFACE ( 'NONE', #32, 1.499999999999990674 ) ;
#163 = AXIS2_PLACEMENT_3D ( 'NONE', #157, #2, #84 ) ;
#164 = PRODUCT_DEFINITION ( 'UNKNOWN', '', #128, #3 ) ;
#165 = DIRECTION ( 'NONE',  ( 0.0000000000000000000, -1.000000000000000000, 0.0000000000000000000 ) ) ;
#166 = EDGE_LOOP ( 'NONE', ( #46 ) ) ;
#167 = PERSON_AND_ORGANIZATION ( #158, #182 ) ;
#168 = AXIS2_PLACEMENT_3D ( 'NONE', #40, #115, #110 ) ;
#169 = LOCAL_TIME ( 10, 46, 4.000000000000000000, #73 ) ;
#170 = VERTEX_POINT ( 'NONE', #91 ) ;
#171 = EDGE_CURVE ( 'NONE', #155, #155, #26, .T. ) ;
#172 = VERTEX_POINT ( 'NONE', #191 ) ;
#173 = DATE_TIME_ROLE ( 'classification_date' ) ;
#174 = PERSON_AND_ORGANIZATION ( #158, #182 ) ;
#175 = CARTESIAN_POINT ( 'NONE',  ( 4.189777606611756871E-15, 0.0000000000000000000, 1.199999999999999067 ) ) ;
#176 = CARTESIAN_POINT ( 'NONE',  ( 4.189777606611756871E-15, -1.463091523002511100E-16, 1.199999999999999067 ) ) ;
#177 = FACE_OUTER_BOUND ( 'NONE', #86, .T. ) ;
#178 = FACE_BOUND ( 'NONE', #69, .T. ) ;
#179 = APPROVAL ( #37, 'UNSPECIFIED' ) ;
#180 = ORIENTED_EDGE ( 'NONE', *, *, #22, .F. ) ;
#181 = PRODUCT ( '952422', '952422', '', ( #8 ) ) ;
#182 = ORGANIZATION ( 'UNSPECIFIED', 'UNSPECIFIED', '' ) ;
#183 = ORIENTED_EDGE ( 'NONE', *, *, #89, .F. ) ;
#184 = EDGE_LOOP ( 'NONE', ( #72 ) ) ;
#185 = PERSON_AND_ORGANIZATION ( #158, #182 ) ;
#186 = DIRECTION ( 'NONE',  ( 3.491481338843133355E-15, -1.219242935835426903E-16, 1.000000000000000000 ) ) ;
#187 = PRODUCT_RELATED_PRODUCT_CATEGORY ( 'detail', '', ( #181 ) ) ;
#188 = PLANE ( 'NONE',  #25 ) ;
#189 = CALENDAR_DATE ( 2021, 1, 11 ) ;
#190 = APPROVAL_DATE_TIME ( #108, #179 ) ;
#191 = CARTESIAN_POINT ( 'NONE',  ( -4.723766572922281742E-30, -0.2750000000000000777, -1.352940518504232708E-15 ) ) ;
#192 = APPROVAL_PERSON_ORGANIZATION ( #237, #179, #71 ) ;
#193 = PERSON_AND_ORGANIZATION_ROLE ( 'creator' ) ;
#194 = DIRECTION ( 'NONE',  ( 0.0000000000000000000, 1.000000000000000000, 0.0000000000000000000 ) ) ;
#195 = DIRECTION ( 'NONE',  ( 0.0000000000000000000, -1.000000000000000000, 0.0000000000000000000 ) ) ;
#196 = DIRECTION ( 'NONE',  ( 0.0000000000000000000, 1.000000000000000000, 0.0000000000000000000 ) ) ;
#197 = DIRECTION ( 'NONE',  ( -4.256963957985714144E-31, -1.000000000000000000, -1.219242935835423944E-16 ) ) ;
#198 = LOCAL_TIME ( 10, 46, 4.000000000000000000, #206 ) ;
#199 = ADVANCED_FACE ( 'NONE', ( #123, #221 ), #61, .T. ) ;
#200 = TOROIDAL_SURFACE ( 'NONE', #98, 2.274999999999999911, 2.000000000000000000 ) ;
#201 = CC_DESIGN_APPROVAL ( #179, ( #12 ) ) ;
#202 = CYLINDRICAL_SURFACE ( 'NONE', #47, 0.2750000000000001887 ) ;
#203 = ORIENTED_EDGE ( 'NONE', *, *, #112, .F. ) ;
#204 = SECURITY_CLASSIFICATION_LEVEL ( 'unclassified' ) ;
#205 = EDGE_LOOP ( 'NONE', ( #183 ) ) ;
#206 = COORDINATED_UNIVERSAL_TIME_OFFSET ( 1, 0, .AHEAD. ) ;
#207 = VERTEX_POINT ( 'NONE', #225 ) ;
#208 = PERSON_AND_ORGANIZATION_ROLE ( 'classification_officer' ) ;
#209 =( NAMED_UNIT ( * ) PLANE_ANGLE_UNIT ( ) SI_UNIT ( $, .RADIAN. ) );
#210 = CARTESIAN_POINT ( 'NONE',  ( -4.606700064077674873E-30, 1.608682953035729317E-31, -1.319411337768758434E-15 ) ) ;
#211 = ADVANCED_FACE ( 'NONE', ( #14 ), #188, .T. ) ;
#212 = LOCAL_TIME ( 10, 46, 4.000000000000000000, #81 ) ;
#213 = APPROVAL_DATE_TIME ( #56, #17 ) ;
#214 = CC_DESIGN_PERSON_AND_ORGANIZATION_ASSIGNMENT ( #130, #193, ( #164 ) ) ;
#215 = ADVANCED_BREP_SHAPE_REPRESENTATION ( '952422', ( #49, #218, #6 ), #44 ) ;
#216 = CONICAL_SURFACE ( 'NONE', #104, 1.199999999999992184, 0.7853981633974468357 ) ;
#217 = CC_DESIGN_PERSON_AND_ORGANIZATION_ASSIGNMENT ( #18, #223, ( #128 ) ) ;
#218 = MANIFOLD_SOLID_BREP ( 'Corps-Déplacer/Copier1[2]', #142 ) ;
#219 = CC_DESIGN_SECURITY_CLASSIFICATION ( #12, ( #128 ) ) ;
#220 = EDGE_LOOP ( 'NONE', ( #150 ) ) ;
#221 = FACE_OUTER_BOUND ( 'NONE', #145, .T. ) ;
#222 = EDGE_CURVE ( 'NONE', #133, #133, #227, .T. ) ;
#223 = PERSON_AND_ORGANIZATION_ROLE ( 'creator' ) ;
#224 = EDGE_LOOP ( 'NONE', ( #16 ) ) ;
#225 = CARTESIAN_POINT ( 'NONE',  ( 1.316288464743861212E-13, 1.499999999999988232, 37.69999999999999574 ) ) ;
#226 = DIRECTION ( 'NONE',  ( -3.491481338843133355E-15, 1.224646799147353207E-16, -1.000000000000000000 ) ) ;
#227 = CIRCLE ( 'NONE', #156, 0.2750000000000002442 ) ;
#228 = APPROVAL_STATUS ( 'not_yet_approved' ) ;
#229 = DIRECTION ( 'NONE',  ( -3.491481338843133355E-15, 1.219242935835426903E-16, -1.000000000000000000 ) ) ;
#230 = CARTESIAN_POINT ( 'NONE',  ( 1.316288464743861212E-13, -4.616918432785521081E-15, 37.69999999999999574 ) ) ;
#231 = DIRECTION ( 'NONE',  ( 3.491481338843133355E-15, -1.224646799147353207E-16, 1.000000000000000000 ) ) ;
#232 = CARTESIAN_POINT ( 'NONE',  ( 0.0000000000000000000, 0.0000000000000000000, 0.0000000000000000000 ) ) ;
#233 = AXIS2_PLACEMENT_3D ( 'NONE', #24, #136, #34 ) ;
#234 = PERSON_AND_ORGANIZATION ( #158, #182 ) ;
#235 = ORIENTED_EDGE ( 'NONE', *, *, #89, .T. ) ;
#236 = CC_DESIGN_APPROVAL ( #17, ( #164 ) ) ;
#237 = PERSON_AND_ORGANIZATION ( #158, #182 ) ;
#238 = PERSON_AND_ORGANIZATION ( #158, #182 ) ;
#239 = CARTESIAN_POINT ( 'NONE',  ( 2.107132462773444370E-14, -1.499999999999991340, 6.035067234446744422 ) ) ;
#240 = DIRECTION ( 'NONE',  ( 3.491481338843133355E-15, -1.219242935835426903E-16, 1.000000000000000000 ) ) ;
#241 = AXIS2_PLACEMENT_3D ( 'NONE', #96, #229, #243 ) ;
#242 = FACE_OUTER_BOUND ( 'NONE', #75, .T. ) ;
#243 = DIRECTION ( 'NONE',  ( 0.0000000000000000000, -1.000000000000000000, 0.0000000000000000000 ) ) ;
ENDSEC;
END-ISO-10303-21;
