ISO-10303-21;
HEADER;
FILE_DESCRIPTION (( 'STEP AP203' ),
    '1' );
FILE_NAME ('952421.step',
    '2021-11-01T09:46:04',
    ( '' ),
    ( '' ),
    'SwSTEP 2.0',
    'SolidWorks 2019',
    '' );
FILE_SCHEMA (( 'CONFIG_CONTROL_DESIGN' ));
ENDSEC;

DATA;
#1 = CC_DESIGN_PERSON_AND_ORGANIZATION_ASSIGNMENT ( #221, #186, ( #161 ) ) ;
#2 = CC_DESIGN_APPROVAL ( #208, ( #128 ) ) ;
#3 = FACE_OUTER_BOUND ( 'NONE', #185, .T. ) ;
#4 = COORDINATED_UNIVERSAL_TIME_OFFSET ( 1, 0, .AHEAD. ) ;
#5 = CC_DESIGN_DATE_AND_TIME_ASSIGNMENT ( #108, #48, ( #128 ) ) ;
#6 = LOCAL_TIME ( 10, 46, 4.000000000000000000, #4 ) ;
#7 = ORIENTED_EDGE ( 'NONE', *, *, #156, .T. ) ;
#8 = PERSON_AND_ORGANIZATION ( #212, #111 ) ;
#9 = ORIENTED_EDGE ( 'NONE', *, *, #65, .T. ) ;
#10 = VERTEX_POINT ( 'NONE', #190 ) ;
#11 = FACE_BOUND ( 'NONE', #53, .T. ) ;
#12 = DIRECTION ( 'NONE',  ( 3.491481338843133355E-15, -1.224646799147353207E-16, 1.000000000000000000 ) ) ;
#13 = CARTESIAN_POINT ( 'NONE',  ( 1.326762908760390423E-13, 8.998558695971017012E-33, 38.00000000000000000 ) ) ;
#14 = DIRECTION ( 'NONE',  ( 3.491481338843133355E-15, -1.219242935835426903E-16, 1.000000000000000000 ) ) ;
#15 = APPROVAL_ROLE ( '' ) ;
#16 = APPROVAL_ROLE ( '' ) ;
#17 = DIRECTION ( 'NONE',  ( 3.491481338843133355E-15, -1.219242935835426903E-16, 1.000000000000000000 ) ) ;
#18 = ADVANCED_FACE ( 'NONE', ( #176 ), #230, .T. ) ;
#19 = CONICAL_SURFACE ( 'NONE', #127, 2.499999999999991562, 0.2617993877991429130 ) ;
#20 = CC_DESIGN_PERSON_AND_ORGANIZATION_ASSIGNMENT ( #8, #80, ( #163 ) ) ;
#21 = ORIENTED_EDGE ( 'NONE', *, *, #86, .F. ) ;
#22 = AXIS2_PLACEMENT_3D ( 'NONE', #121, #47, #120 ) ;
#23 = EDGE_LOOP ( 'NONE', ( #9 ) ) ;
#24 = CARTESIAN_POINT ( 'NONE',  ( 3.491481338843130989E-15, -0.2250000000000001443, 0.9999999999999993339 ) ) ;
#25 = DIRECTION ( 'NONE',  ( -4.256963957985710640E-31, -1.000000000000000000, -1.219242935835426903E-16 ) ) ;
#26 = SECURITY_CLASSIFICATION_LEVEL ( 'unclassified' ) ;
#27 = CARTESIAN_POINT ( 'NONE',  ( 3.491481338843130989E-15, -1.219242935835426163E-16, 0.9999999999999993339 ) ) ;
#28 = APPROVAL_STATUS ( 'not_yet_approved' ) ;
#29 = APPROVAL_STATUS ( 'not_yet_approved' ) ;
#30 = AXIS2_PLACEMENT_3D ( 'NONE', #192, #12, #200 ) ;
#31 = PERSON_AND_ORGANIZATION ( #212, #111 ) ;
#32 = CIRCLE ( 'NONE', #51, 0.2250000000000000611 ) ;
#33 = CARTESIAN_POINT ( 'NONE',  ( 0.0000000000000000000, 0.0000000000000000000, 0.0000000000000000000 ) ) ;
#34 = DIRECTION ( 'NONE',  ( 0.0000000000000000000, -1.000000000000000000, 0.0000000000000000000 ) ) ;
#35 = CARTESIAN_POINT ( 'NONE',  ( 2.102454764747789973E-14, -1.499999999999991340, 6.021669774825194388 ) ) ;
#36 = UNCERTAINTY_MEASURE_WITH_UNIT (LENGTH_MEASURE( 1.000000000000000082E-05 ), #131, 'distance_accuracy_value', 'NONE');
#37 = DIRECTION ( 'NONE',  ( 1.000000000000000000, 0.0000000000000000000, 0.0000000000000000000 ) ) ;
#38 = MECHANICAL_CONTEXT ( 'NONE', #75, 'mechanical' ) ;
#39 = LOCAL_TIME ( 10, 46, 4.000000000000000000, #106 ) ;
#40 = ADVANCED_FACE ( 'NONE', ( #44 ), #166, .F. ) ;
#41 = CARTESIAN_POINT ( 'NONE',  ( 3.491481338843130989E-15, 0.0000000000000000000, 0.9999999999999993339 ) ) ;
#42 = EDGE_LOOP ( 'NONE', ( #220 ) ) ;
#43 = PLANE ( 'NONE',  #62 ) ;
#44 = FACE_OUTER_BOUND ( 'NONE', #85, .T. ) ;
#45 = AXIS2_PLACEMENT_3D ( 'NONE', #152, #227, #37 ) ;
#46 = LOCAL_TIME ( 10, 46, 4.000000000000000000, #144 ) ;
#47 = DIRECTION ( 'NONE',  ( -3.491481338843133355E-15, 1.224646799147353207E-16, -1.000000000000000000 ) ) ;
#48 = DATE_TIME_ROLE ( 'classification_date' ) ;
#49 = FACE_BOUND ( 'NONE', #79, .T. ) ;
#50 = EDGE_LOOP ( 'NONE', ( #7 ) ) ;
#51 = AXIS2_PLACEMENT_3D ( 'NONE', #93, #124, #34 ) ;
#52 = VERTEX_POINT ( 'NONE', #98 ) ;
#53 = EDGE_LOOP ( 'NONE', ( #197 ) ) ;
#54 = VERTEX_POINT ( 'NONE', #187 ) ;
#55 = CLOSED_SHELL ( 'NONE', ( #18, #102, #130 ) ) ;
#56 = MANIFOLD_SOLID_BREP ( 'Corps-Déplacer/Copier1[2]', #55 ) ;
#57 = CIRCLE ( 'NONE', #22, 1.499999999999992895 ) ;
#58 = APPLICATION_PROTOCOL_DEFINITION ( 'international standard', 'config_control_design', 1994, #75 ) ;
#59 = EDGE_LOOP ( 'NONE', ( #61 ) ) ;
#60 = CARTESIAN_POINT ( 'NONE',  ( 3.491481338843130989E-15, -0.2250000000000001443, 0.9999999999999993339 ) ) ;
#61 = ORIENTED_EDGE ( 'NONE', *, *, #99, .T. ) ;
#62 = AXIS2_PLACEMENT_3D ( 'NONE', #118, #164, #73 ) ;
#63 = CARTESIAN_POINT ( 'NONE',  ( 0.0000000000000000000, 0.0000000000000000000, 0.0000000000000000000 ) ) ;
#64 = EDGE_LOOP ( 'NONE', ( #178 ) ) ;
#65 = EDGE_CURVE ( 'NONE', #222, #222, #57, .T. ) ;
#66 = PLANE ( 'NONE',  #30 ) ;
#67 = APPROVAL_PERSON_ORGANIZATION ( #137, #160, #228 ) ;
#68 = APPROVAL_DATE_TIME ( #237, #72 ) ;
#69 = CARTESIAN_POINT ( 'NONE',  ( 5.298805071068388947E-15, -1.850369520637249153E-16, 1.517638090205028378 ) ) ;
#70 = PERSON_AND_ORGANIZATION_ROLE ( 'classification_officer' ) ;
#71 = ORIENTED_EDGE ( 'NONE', *, *, #149, .F. ) ;
#72 = APPROVAL ( #28, 'UNSPECIFIED' ) ;
#73 = DIRECTION ( 'NONE',  ( -4.275831445896958607E-31, -1.000000000000000000, -1.224646799147353207E-16 ) ) ;
#74 = DIRECTION ( 'NONE',  ( -3.491481338843133355E-15, 1.224646799147353207E-16, -1.000000000000000000 ) ) ;
#75 = APPLICATION_CONTEXT ( 'configuration controlled 3d designs of mechanical parts and assemblies' ) ;
#76 = CC_DESIGN_DATE_AND_TIME_ASSIGNMENT ( #104, #184, ( #179 ) ) ;
#77 = DIRECTION ( 'NONE',  ( 0.0000000000000000000, -1.000000000000000000, 0.0000000000000000000 ) ) ;
#78 = CIRCLE ( 'NONE', #113, 0.2249999999999999500 ) ;
#79 = EDGE_LOOP ( 'NONE', ( #174 ) ) ;
#80 = PERSON_AND_ORGANIZATION_ROLE ( 'design_owner' ) ;
#81 = CARTESIAN_POINT ( 'NONE',  ( -4.585415244287746096E-30, 1.601250186352806200E-31, -1.313315123089581329E-15 ) ) ;
#82 = VERTEX_POINT ( 'NONE', #60 ) ;
#83 = DIRECTION ( 'NONE',  ( 0.0000000000000000000, -1.000000000000000000, 0.0000000000000000000 ) ) ;
#84 = CARTESIAN_POINT ( 'NONE',  ( 3.491481338843133355E-15, -1.445602896647343354E-16, 1.000000000000000000 ) ) ;
#85 = EDGE_LOOP ( 'NONE', ( #123 ) ) ;
#86 = EDGE_CURVE ( 'NONE', #54, #54, #188, .T. ) ;
#87 = APPROVAL_DATE_TIME ( #239, #208 ) ;
#88 = FACE_OUTER_BOUND ( 'NONE', #23, .T. ) ;
#89 = AXIS2_PLACEMENT_3D ( 'NONE', #69, #17, #90 ) ;
#90 = DIRECTION ( 'NONE',  ( 0.0000000000000000000, -1.000000000000000000, 0.0000000000000000000 ) ) ;
#91 = EDGE_LOOP ( 'NONE', ( #107 ) ) ;
#92 = DIRECTION ( 'NONE',  ( -4.275831445896958607E-31, -1.000000000000000000, -1.224646799147353207E-16 ) ) ;
#93 = CARTESIAN_POINT ( 'NONE',  ( 3.491481338843130989E-15, -1.219242935835426163E-16, 0.9999999999999993339 ) ) ;
#94 = CC_DESIGN_PERSON_AND_ORGANIZATION_ASSIGNMENT ( #143, #70, ( #128 ) ) ;
#95 = AXIS2_PLACEMENT_3D ( 'NONE', #172, #138, #103 ) ;
#96 = CC_DESIGN_PERSON_AND_ORGANIZATION_ASSIGNMENT ( #210, #195, ( #179 ) ) ;
#97 = DESIGN_CONTEXT ( 'detailed design', #112, 'design' ) ;
#98 = CARTESIAN_POINT ( 'NONE',  ( 1.326762908760390423E-13, 1.199999999999987521, 38.00000000000000000 ) ) ;
#99 = EDGE_CURVE ( 'NONE', #126, #126, #141, .T. ) ;
#100 = DIRECTION ( 'NONE',  ( 0.0000000000000000000, 1.000000000000000000, 0.0000000000000000000 ) ) ;
#101 = AXIS2_PLACEMENT_3D ( 'NONE', #13, #74, #181 ) ;
#102 = ADVANCED_FACE ( 'NONE', ( #238, #242 ), #125, .T. ) ;
#103 = DIRECTION ( 'NONE',  ( 0.0000000000000000000, 1.000000000000000000, 0.0000000000000000000 ) ) ;
#104 = DATE_AND_TIME ( #147, #206 ) ;
#105 = DIRECTION ( 'NONE',  ( -3.491481338843133355E-15, 1.219242935835426903E-16, -1.000000000000000000 ) ) ;
#106 = COORDINATED_UNIVERSAL_TIME_OFFSET ( 1, 0, .AHEAD. ) ;
#107 = ORIENTED_EDGE ( 'NONE', *, *, #65, .F. ) ;
#108 = DATE_AND_TIME ( #204, #46 ) ;
#109 = EDGE_LOOP ( 'NONE', ( #117 ) ) ;
#110 = ADVANCED_FACE ( 'NONE', ( #207, #3 ), #224, .F. ) ;
#111 = ORGANIZATION ( 'UNSPECIFIED', 'UNSPECIFIED', '' ) ;
#112 = APPLICATION_CONTEXT ( 'configuration controlled 3d designs of mechanical parts and assemblies' ) ;
#113 = AXIS2_PLACEMENT_3D ( 'NONE', #81, #155, #25 ) ;
#114 = ORIENTED_EDGE ( 'NONE', *, *, #149, .T. ) ;
#115 = APPROVAL_DATE_TIME ( #213, #160 ) ;
#116 = PRODUCT_RELATED_PRODUCT_CATEGORY ( 'detail', '', ( #163 ) ) ;
#117 = ORIENTED_EDGE ( 'NONE', *, *, #236, .F. ) ;
#118 = CARTESIAN_POINT ( 'NONE',  ( 3.491481338843133355E-15, -1.445602896647343354E-16, 1.000000000000000000 ) ) ;
#119 = AXIS2_PLACEMENT_3D ( 'NONE', #140, #105, #216 ) ;
#120 = DIRECTION ( 'NONE',  ( 0.0000000000000000000, 1.000000000000000000, 0.0000000000000000000 ) ) ;
#121 = CARTESIAN_POINT ( 'NONE',  ( 1.316288464743861212E-13, -4.616918432785521081E-15, 37.69999999999999574 ) ) ;
#122 = PERSON_AND_ORGANIZATION ( #212, #111 ) ;
#123 = ORIENTED_EDGE ( 'NONE', *, *, #142, .F. ) ;
#124 = DIRECTION ( 'NONE',  ( 3.491481338843133355E-15, -1.219242935835426903E-16, 1.000000000000000000 ) ) ;
#125 = CYLINDRICAL_SURFACE ( 'NONE', #235, 0.2250000000000000056 ) ;
#126 = VERTEX_POINT ( 'NONE', #35 ) ;
#127 = AXIS2_PLACEMENT_3D ( 'NONE', #205, #170, #77 ) ;
#128 = SECURITY_CLASSIFICATION ( '', '', #26 ) ;
#129 = CARTESIAN_POINT ( 'NONE',  ( 1.316288464743861212E-13, 1.499999999999988232, 37.69999999999999574 ) ) ;
#130 = ADVANCED_FACE ( 'NONE', ( #175 ), #66, .F. ) ;
#131 =( LENGTH_UNIT ( ) NAMED_UNIT ( * ) SI_UNIT ( .MILLI., .METRE. ) );
#132 =( NAMED_UNIT ( * ) PLANE_ANGLE_UNIT ( ) SI_UNIT ( $, .RADIAN. ) );
#133 = CALENDAR_DATE ( 2021, 1, 11 ) ;
#134 = MANIFOLD_SOLID_BREP ( 'Corps-Déplacer/Copier1[1]', #218 ) ;
#135 = CC_DESIGN_APPROVAL ( #72, ( #161 ) ) ;
#136 = PRODUCT_DEFINITION_SHAPE ( 'NONE', 'NONE',  #179 ) ;
#137 = PERSON_AND_ORGANIZATION ( #212, #111 ) ;
#138 = DIRECTION ( 'NONE',  ( -3.491481338843133355E-15, 1.224646799147353207E-16, -1.000000000000000000 ) ) ;
#139 = FACE_OUTER_BOUND ( 'NONE', #64, .T. ) ;
#140 = CARTESIAN_POINT ( 'NONE',  ( 2.102454764747789973E-14, -7.341878334889324000E-16, 6.021669774825194388 ) ) ;
#141 = CIRCLE ( 'NONE', #119, 1.499999999999990674 ) ;
#142 = EDGE_CURVE ( 'NONE', #52, #52, #169, .T. ) ;
#143 = PERSON_AND_ORGANIZATION ( #212, #111 ) ;
#144 = COORDINATED_UNIVERSAL_TIME_OFFSET ( 1, 0, .AHEAD. ) ;
#145 = EDGE_LOOP ( 'NONE', ( #240 ) ) ;
#146 = FACE_OUTER_BOUND ( 'NONE', #59, .T. ) ;
#147 = CALENDAR_DATE ( 2021, 1, 11 ) ;
#148 = ADVANCED_FACE ( 'NONE', ( #229, #11 ), #203, .T. ) ;
#149 = EDGE_CURVE ( 'NONE', #10, #10, #78, .T. ) ;
#150 = CIRCLE ( 'NONE', #168, 0.2250000000000000611 ) ;
#151 = EDGE_LOOP ( 'NONE', ( #114 ) ) ;
#152 = CARTESIAN_POINT ( 'NONE',  ( 0.0000000000000000000, 0.0000000000000000000, 0.0000000000000000000 ) ) ;
#153 = EDGE_LOOP ( 'NONE', ( #71 ) ) ;
#154 = APPROVAL_STATUS ( 'not_yet_approved' ) ;
#155 = DIRECTION ( 'NONE',  ( 3.491481338843133355E-15, -1.219242935835426903E-16, 1.000000000000000000 ) ) ;
#156 = EDGE_CURVE ( 'NONE', #211, #211, #150, .T. ) ;
#157 = FACE_OUTER_BOUND ( 'NONE', #42, .T. ) ;
#158 = DIRECTION ( 'NONE',  ( 3.491481338843133355E-15, -1.224646799147353207E-16, 1.000000000000000000 ) ) ;
#159 = DIRECTION ( 'NONE',  ( -3.491481338843133355E-15, 1.224646799147353207E-16, -1.000000000000000000 ) ) ;
#160 = APPROVAL ( #154, 'UNSPECIFIED' ) ;
#161 = PRODUCT_DEFINITION_FORMATION_WITH_SPECIFIED_SOURCE ( 'ANY', '', #163, .NOT_KNOWN. ) ;
#162 = COORDINATED_UNIVERSAL_TIME_OFFSET ( 1, 0, .AHEAD. ) ;
#163 = PRODUCT ( '952421', '952421', '', ( #38 ) ) ;
#164 = DIRECTION ( 'NONE',  ( 3.491481338843133355E-15, -1.224646799147353207E-16, 1.000000000000000000 ) ) ;
#165 = CALENDAR_DATE ( 2021, 1, 11 ) ;
#166 = PLANE ( 'NONE',  #101 ) ;
#167 = ADVANCED_BREP_SHAPE_REPRESENTATION ( '952421', ( #134, #56, #45 ), #214 ) ;
#168 = AXIS2_PLACEMENT_3D ( 'NONE', #27, #14, #83 ) ;
#169 = CIRCLE ( 'NONE', #241, 1.199999999999992184 ) ;
#170 = DIRECTION ( 'NONE',  ( 3.491481338843133355E-15, -1.219242935835426903E-16, 1.000000000000000000 ) ) ;
#171 = CC_DESIGN_APPROVAL ( #160, ( #179 ) ) ;
#172 = CARTESIAN_POINT ( 'NONE',  ( 1.326762908760390423E-13, -4.653657836759941941E-15, 38.00000000000000000 ) ) ;
#173 = ADVANCED_FACE ( 'NONE', ( #88, #157 ), #231, .T. ) ;
#174 = ORIENTED_EDGE ( 'NONE', *, *, #86, .T. ) ;
#175 = FACE_OUTER_BOUND ( 'NONE', #153, .T. ) ;
#176 = FACE_OUTER_BOUND ( 'NONE', #145, .T. ) ;
#177 = APPROVAL_PERSON_ORGANIZATION ( #122, #72, #15 ) ;
#178 = ORIENTED_EDGE ( 'NONE', *, *, #156, .F. ) ;
#179 = PRODUCT_DEFINITION ( 'UNKNOWN', '', #161, #97 ) ;
#180 = CARTESIAN_POINT ( 'NONE',  ( 1.326762908760390423E-13, -4.653657836759941941E-15, 38.00000000000000000 ) ) ;
#181 = DIRECTION ( 'NONE',  ( 4.275831445896958607E-31, 1.000000000000000000, 1.224646799147353207E-16 ) ) ;
#182 = CALENDAR_DATE ( 2021, 1, 11 ) ;
#183 = CC_DESIGN_SECURITY_CLASSIFICATION ( #128, ( #161 ) ) ;
#184 = DATE_TIME_ROLE ( 'creation_date' ) ;
#185 = EDGE_LOOP ( 'NONE', ( #21 ) ) ;
#186 = PERSON_AND_ORGANIZATION_ROLE ( 'design_supplier' ) ;
#187 = CARTESIAN_POINT ( 'NONE',  ( 5.298805071068388947E-15, -0.2931483474218603003, 1.517638090205028378 ) ) ;
#188 = CIRCLE ( 'NONE', #89, 0.2931483474218601337 ) ;
#189 = DIRECTION ( 'NONE',  ( 3.491481338843133355E-15, -1.219242935835426903E-16, 1.000000000000000000 ) ) ;
#190 = CARTESIAN_POINT ( 'NONE',  ( -4.681196933342424189E-30, -0.2249999999999999500, -1.340748089145878498E-15 ) ) ;
#191 =( NAMED_UNIT ( * ) SI_UNIT ( $, .STERADIAN. ) SOLID_ANGLE_UNIT ( ) );
#192 = CARTESIAN_POINT ( 'NONE',  ( -1.924129419174264339E-30, 6.748937501461144163E-32, -5.510925685805913103E-16 ) ) ;
#193 = AXIS2_PLACEMENT_3D ( 'NONE', #84, #158, #92 ) ;
#194 = ADVANCED_FACE ( 'NONE', ( #139 ), #43, .F. ) ;
#195 = PERSON_AND_ORGANIZATION_ROLE ( 'creator' ) ;
#196 = DIRECTION ( 'NONE',  ( -3.491481338843133355E-15, 1.224646799147353207E-16, -1.000000000000000000 ) ) ;
#197 = ORIENTED_EDGE ( 'NONE', *, *, #142, .T. ) ;
#198 = APPLICATION_PROTOCOL_DEFINITION ( 'international standard', 'config_control_design', 1994, #112 ) ;
#199 = AXIS2_PLACEMENT_3D ( 'NONE', #63, #159, #232 ) ;
#200 = DIRECTION ( 'NONE',  ( -4.275831445896958607E-31, -1.000000000000000000, -1.224646799147353207E-16 ) ) ;
#201 = COORDINATED_UNIVERSAL_TIME_OFFSET ( 1, 0, .AHEAD. ) ;
#202 = PERSON_AND_ORGANIZATION_ROLE ( 'creator' ) ;
#203 = CONICAL_SURFACE ( 'NONE', #95, 1.199999999999992184, 0.7853981633974468357 ) ;
#204 = CALENDAR_DATE ( 2021, 1, 11 ) ;
#205 = CARTESIAN_POINT ( 'NONE',  ( 3.405493339771942752E-14, -1.189215491819669837E-15, 9.753720582394171501 ) ) ;
#206 = LOCAL_TIME ( 10, 46, 4.000000000000000000, #201 ) ;
#207 = FACE_OUTER_BOUND ( 'NONE', #50, .T. ) ;
#208 = APPROVAL ( #29, 'UNSPECIFIED' ) ;
#209 = AXIS2_PLACEMENT_3D ( 'NONE', #41, #234, #217 ) ;
#210 = PERSON_AND_ORGANIZATION ( #212, #111 ) ;
#211 = VERTEX_POINT ( 'NONE', #24 ) ;
#212 = PERSON ( 'UNSPECIFIED', 'UNSPECIFIED', 'UNSPECIFIED', ('UNSPECIFIED'), ('UNSPECIFIED'), ('UNSPECIFIED') ) ;
#213 = DATE_AND_TIME ( #133, #6 ) ;
#214 =( GEOMETRIC_REPRESENTATION_CONTEXT ( 3 ) GLOBAL_UNCERTAINTY_ASSIGNED_CONTEXT ( ( #36 ) ) GLOBAL_UNIT_ASSIGNED_CONTEXT ( ( #131, #132, #191 ) ) REPRESENTATION_CONTEXT ( 'NONE', 'WORKASPACE' ) );
#215 = APPROVAL_PERSON_ORGANIZATION ( #219, #208, #16 ) ;
#216 = DIRECTION ( 'NONE',  ( 0.0000000000000000000, -1.000000000000000000, 0.0000000000000000000 ) ) ;
#217 = DIRECTION ( 'NONE',  ( -4.319816725804075743E-31, -1.000000000000000000, -1.219242935835426903E-16 ) ) ;
#218 = CLOSED_SHELL ( 'NONE', ( #173, #148, #40, #226, #110, #194 ) ) ;
#219 = PERSON_AND_ORGANIZATION ( #212, #111 ) ;
#220 = ORIENTED_EDGE ( 'NONE', *, *, #99, .F. ) ;
#221 = PERSON_AND_ORGANIZATION ( #212, #111 ) ;
#222 = VERTEX_POINT ( 'NONE', #129 ) ;
#223 = CC_DESIGN_PERSON_AND_ORGANIZATION_ASSIGNMENT ( #31, #202, ( #161 ) ) ;
#224 = TOROIDAL_SURFACE ( 'NONE', #209, 2.225000000000000089, 2.000000000000000000 ) ;
#225 = LOCAL_TIME ( 10, 46, 4.000000000000000000, #162 ) ;
#226 = ADVANCED_FACE ( 'NONE', ( #49, #146 ), #19, .T. ) ;
#227 = DIRECTION ( 'NONE',  ( 0.0000000000000000000, 0.0000000000000000000, 1.000000000000000000 ) ) ;
#228 = APPROVAL_ROLE ( '' ) ;
#229 = FACE_OUTER_BOUND ( 'NONE', #91, .T. ) ;
#230 = PLANE ( 'NONE',  #193 ) ;
#231 = CYLINDRICAL_SURFACE ( 'NONE', #199, 1.499999999999990674 ) ;
#232 = DIRECTION ( 'NONE',  ( 4.275831445896958607E-31, 1.000000000000000000, 1.224646799147353454E-16 ) ) ;
#233 = SHAPE_DEFINITION_REPRESENTATION ( #136, #167 ) ;
#234 = DIRECTION ( 'NONE',  ( 3.491481338843133355E-15, -1.219242935835426903E-16, 1.000000000000000000 ) ) ;
#235 = AXIS2_PLACEMENT_3D ( 'NONE', #33, #189, #243 ) ;
#236 = EDGE_CURVE ( 'NONE', #82, #82, #32, .T. ) ;
#237 = DATE_AND_TIME ( #182, #225 ) ;
#238 = FACE_OUTER_BOUND ( 'NONE', #151, .T. ) ;
#239 = DATE_AND_TIME ( #165, #39 ) ;
#240 = ORIENTED_EDGE ( 'NONE', *, *, #236, .T. ) ;
#241 = AXIS2_PLACEMENT_3D ( 'NONE', #180, #196, #100 ) ;
#242 = FACE_OUTER_BOUND ( 'NONE', #109, .T. ) ;
#243 = DIRECTION ( 'NONE',  ( -4.256963957985708889E-31, -1.000000000000000000, -1.219242935835426656E-16 ) ) ;
ENDSEC;
END-ISO-10303-21;
