ISO-10303-21;
HEADER;
FILE_DESCRIPTION (( 'STEP AP203' ),
    '1' );
FILE_NAME ('952322.step',
    '2021-11-30T10:47:29',
    ( '' ),
    ( '' ),
    'SwSTEP 2.0',
    'SolidWorks 2019',
    '' );
FILE_SCHEMA (( 'CONFIG_CONTROL_DESIGN' ));
ENDSEC;

DATA;
#1 = DIRECTION ( 'NONE',  ( 0.0000000000000000000, 1.000000000000000000, 0.0000000000000000000 ) ) ;
#2 = AXIS2_PLACEMENT_3D ( 'NONE', #100, #189, #260 ) ;
#3 = DIRECTION ( 'NONE',  ( 0.0000000000000000000, 1.000000000000000000, 0.0000000000000000000 ) ) ;
#4 = VERTEX_POINT ( 'NONE', #27 ) ;
#5 = VERTEX_POINT ( 'NONE', #63 ) ;
#6 = FACE_OUTER_BOUND ( 'NONE', #165, .T. ) ;
#7 = CARTESIAN_POINT ( 'NONE',  ( 0.0000000000000000000, 0.0000000000000000000, 0.0000000000000000000 ) ) ;
#8 = AXIS2_PLACEMENT_3D ( 'NONE', #219, #178, #270 ) ;
#9 = PERSON_AND_ORGANIZATION ( #166, #112 ) ;
#10 = EDGE_LOOP ( 'NONE', ( #199 ) ) ;
#11 = COORDINATED_UNIVERSAL_TIME_OFFSET ( 1, 0, .AHEAD. ) ;
#12 =( NAMED_UNIT ( * ) SI_UNIT ( $, .STERADIAN. ) SOLID_ANGLE_UNIT ( ) );
#13 = ORIENTED_EDGE ( 'NONE', *, *, #122, .F. ) ;
#14 = PERSON_AND_ORGANIZATION_ROLE ( 'classification_officer' ) ;
#15 = EDGE_CURVE ( 'NONE', #5, #5, #33, .T. ) ;
#16 = ADVANCED_BREP_SHAPE_REPRESENTATION ( '952322', ( #151, #152, #268 ), #97 ) ;
#17 = EDGE_LOOP ( 'NONE', ( #227 ) ) ;
#18 = DIRECTION ( 'NONE',  ( -4.275831445896958607E-31, -1.000000000000000000, -1.224646799147353207E-16 ) ) ;
#19 = PRODUCT_DEFINITION_FORMATION_WITH_SPECIFIED_SOURCE ( 'ANY', '', #225, .NOT_KNOWN. ) ;
#20 = DIRECTION ( 'NONE',  ( -3.491481338843133355E-15, 1.224646799147353207E-16, -1.000000000000000000 ) ) ;
#21 = FACE_OUTER_BOUND ( 'NONE', #229, .T. ) ;
#22 = EDGE_LOOP ( 'NONE', ( #207 ) ) ;
#23 = FACE_OUTER_BOUND ( 'NONE', #53, .T. ) ;
#24 = EDGE_CURVE ( 'NONE', #147, #147, #175, .T. ) ;
#25 = LOCAL_TIME ( 11, 47, 29.00000000000000000, #115 ) ;
#26 = DIRECTION ( 'NONE',  ( -4.223530579796572096E-31, -1.000000000000000000, -1.188818171584983563E-16 ) ) ;
#27 = CARTESIAN_POINT ( 'NONE',  ( 3.037588764793526145E-13, 4.749999999999997335, 87.00000000000001421 ) ) ;
#28 = ADVANCED_FACE ( 'NONE', ( #234, #262 ), #157, .T. ) ;
#29 = DIRECTION ( 'NONE',  ( -3.491481338843133355E-15, 1.224646799147353207E-16, -1.000000000000000000 ) ) ;
#30 = PERSON_AND_ORGANIZATION ( #166, #112 ) ;
#31 = APPLICATION_PROTOCOL_DEFINITION ( 'international standard', 'config_control_design', 1994, #230 ) ;
#32 = APPROVAL_STATUS ( 'not_yet_approved' ) ;
#33 = CIRCLE ( 'NONE', #98, 4.999999999999993783 ) ;
#34 = MECHANICAL_CONTEXT ( 'NONE', #148, 'mechanical' ) ;
#35 = CIRCLE ( 'NONE', #65, 5.016000000000000014 ) ;
#36 = DESIGN_CONTEXT ( 'detailed design', #230, 'design' ) ;
#37 = DIRECTION ( 'NONE',  ( -3.491481338843133355E-15, 1.224646799147353207E-16, -1.000000000000000000 ) ) ;
#38 = CARTESIAN_POINT ( 'NONE',  ( 0.0000000000000000000, 0.0000000000000000000, 0.0000000000000000000 ) ) ;
#39 = PLANE ( 'NONE',  #187 ) ;
#40 = LOCAL_TIME ( 11, 47, 29.00000000000000000, #182 ) ;
#41 = DIRECTION ( 'NONE',  ( -3.491481338843133355E-15, 1.224646799147353207E-16, -1.000000000000000000 ) ) ;
#42 = CARTESIAN_POINT ( 'NONE',  ( 3.037588764793526145E-13, -1.065442715258197367E-14, 87.00000000000001421 ) ) ;
#43 = EDGE_CURVE ( 'NONE', #239, #239, #251, .T. ) ;
#44 = CARTESIAN_POINT ( 'NONE',  ( 0.0000000000000000000, 0.0000000000000000000, 0.0000000000000000000 ) ) ;
#45 = CARTESIAN_POINT ( 'NONE',  ( 6.794675997531921149E-14, 4.749999999999989342, 19.46072551481334045 ) ) ;
#46 = CARTESIAN_POINT ( 'NONE',  ( 4.608755367272936534E-13, 4.999999999999984013, 132.0000000000000000 ) ) ;
#47 = PLANE ( 'NONE',  #143 ) ;
#48 = APPLICATION_PROTOCOL_DEFINITION ( 'international standard', 'config_control_design', 1994, #148 ) ;
#49 = APPROVAL_STATUS ( 'not_yet_approved' ) ;
#50 = ORIENTED_EDGE ( 'NONE', *, *, #24, .F. ) ;
#51 = LOCAL_TIME ( 11, 47, 29.00000000000000000, #249 ) ;
#52 = COORDINATED_UNIVERSAL_TIME_OFFSET ( 1, 0, .AHEAD. ) ;
#53 = EDGE_LOOP ( 'NONE', ( #186 ) ) ;
#54 = DATE_AND_TIME ( #94, #25 ) ;
#55 = EDGE_LOOP ( 'NONE', ( #50 ) ) ;
#56 = AXIS2_PLACEMENT_3D ( 'NONE', #155, #130, #103 ) ;
#57 = EDGE_LOOP ( 'NONE', ( #114 ) ) ;
#58 = CARTESIAN_POINT ( 'NONE',  ( -2.046010955809991843E-30, 7.176440384136039209E-32, -5.860008280863149568E-16 ) ) ;
#59 = ORIENTED_EDGE ( 'NONE', *, *, #96, .T. ) ;
#60 = DIRECTION ( 'NONE',  ( 0.0000000000000000000, 1.000000000000000000, 0.0000000000000000000 ) ) ;
#61 = CLOSED_SHELL ( 'NONE', ( #205, #226, #146, #172 ) ) ;
#62 = DIRECTION ( 'NONE',  ( 0.0000000000000000000, 1.000000000000000000, 0.0000000000000000000 ) ) ;
#63 = CARTESIAN_POINT ( 'NONE',  ( 3.071394887490858903E-13, 4.999999999999984013, 87.96824583655184426 ) ) ;
#64 = CYLINDRICAL_SURFACE ( 'NONE', #70, 4.999999999999997335 ) ;
#65 = AXIS2_PLACEMENT_3D ( 'NONE', #190, #37, #171 ) ;
#66 =( LENGTH_UNIT ( ) NAMED_UNIT ( * ) SI_UNIT ( .MILLI., .METRE. ) );
#67 = DIRECTION ( 'NONE',  ( -3.491481338843133355E-15, 1.224646799147353207E-16, -1.000000000000000000 ) ) ;
#68 = PRODUCT_DEFINITION_SHAPE ( 'NONE', 'NONE',  #263 ) ;
#69 = DIRECTION ( 'NONE',  ( -4.275831445896958607E-31, -1.000000000000000000, -1.224646799147353207E-16 ) ) ;
#70 = AXIS2_PLACEMENT_3D ( 'NONE', #44, #192, #245 ) ;
#71 = CALENDAR_DATE ( 2021, 30, 11 ) ;
#72 = PERSON_AND_ORGANIZATION ( #166, #112 ) ;
#73 = AXIS2_PLACEMENT_3D ( 'NONE', #38, #119, #211 ) ;
#74 = APPROVAL_DATE_TIME ( #54, #242 ) ;
#75 = DIRECTION ( 'NONE',  ( -3.491481338843133355E-15, 1.224646799147353207E-16, -1.000000000000000000 ) ) ;
#76 = APPROVAL ( #32, 'UNSPECIFIED' ) ;
#77 = EDGE_LOOP ( 'NONE', ( #281 ) ) ;
#78 = ORIENTED_EDGE ( 'NONE', *, *, #266, .F. ) ;
#79 = DIRECTION ( 'NONE',  ( -3.491481338843133355E-15, 1.224646799147353207E-16, -1.000000000000000000 ) ) ;
#80 = CARTESIAN_POINT ( 'NONE',  ( 3.071394887490858903E-13, -1.077300306903406976E-14, 87.96824583655184426 ) ) ;
#81 = FACE_BOUND ( 'NONE', #279, .T. ) ;
#82 = LOCAL_TIME ( 11, 47, 29.00000000000000000, #11 ) ;
#83 = VERTEX_POINT ( 'NONE', #150 ) ;
#84 = CARTESIAN_POINT ( 'NONE',  ( 4.643670180661366731E-13, 3.999999999999983569, 133.0000000000000000 ) ) ;
#85 = SECURITY_CLASSIFICATION ( '', '', #132 ) ;
#86 = CARTESIAN_POINT ( 'NONE',  ( 1.396592535537251567E-15, -4.898587196589406296E-17, 0.3999999999999994671 ) ) ;
#87 = DIRECTION ( 'NONE',  ( 3.491481338843133355E-15, -1.224646799147353207E-16, 1.000000000000000000 ) ) ;
#88 = ADVANCED_FACE ( 'NONE', ( #101, #21 ), #253, .F. ) ;
#89 = DATE_TIME_ROLE ( 'creation_date' ) ;
#90 = PERSON_AND_ORGANIZATION ( #166, #112 ) ;
#91 = ORIENTED_EDGE ( 'NONE', *, *, #15, .F. ) ;
#92 = SHAPE_DEFINITION_REPRESENTATION ( #68, #16 ) ;
#93 = EDGE_LOOP ( 'NONE', ( #91 ) ) ;
#94 = CALENDAR_DATE ( 2021, 30, 11 ) ;
#95 = DIRECTION ( 'NONE',  ( -3.491481338843133355E-15, 1.224646799147353207E-16, -1.000000000000000000 ) ) ;
#96 = EDGE_CURVE ( 'NONE', #128, #128, #236, .T. ) ;
#97 =( GEOMETRIC_REPRESENTATION_CONTEXT ( 3 ) GLOBAL_UNCERTAINTY_ASSIGNED_CONTEXT ( ( #139 ) ) GLOBAL_UNIT_ASSIGNED_CONTEXT ( ( #66, #196, #12 ) ) REPRESENTATION_CONTEXT ( 'NONE', 'WORKASPACE' ) );
#98 = AXIS2_PLACEMENT_3D ( 'NONE', #80, #41, #62 ) ;
#99 = DIRECTION ( 'NONE',  ( 4.275831445896958607E-31, 1.000000000000000000, 1.224646799147353207E-16 ) ) ;
#100 = CARTESIAN_POINT ( 'NONE',  ( 6.633814543801952113E-14, 3.761397534915934808E-32, 19.00000000000000000 ) ) ;
#101 = FACE_OUTER_BOUND ( 'NONE', #264, .T. ) ;
#102 = AXIS2_PLACEMENT_3D ( 'NONE', #265, #173, #129 ) ;
#103 = DIRECTION ( 'NONE',  ( 4.275831445896958607E-31, 1.000000000000000000, 1.224646799147353207E-16 ) ) ;
#104 = FACE_OUTER_BOUND ( 'NONE', #10, .T. ) ;
#105 = CARTESIAN_POINT ( 'NONE',  ( 6.633814543801952113E-14, 5.015999999999997350, 19.00000000000000000 ) ) ;
#106 = CIRCLE ( 'NONE', #276, 4.750000000000007994 ) ;
#107 = CLOSED_SHELL ( 'NONE', ( #154, #28, #194, #88, #256, #278, #246 ) ) ;
#108 = FACE_BOUND ( 'NONE', #111, .T. ) ;
#109 = PERSON_AND_ORGANIZATION_ROLE ( 'creator' ) ;
#110 = DIRECTION ( 'NONE',  ( 1.000000000000000000, 0.0000000000000000000, 0.0000000000000000000 ) ) ;
#111 = EDGE_LOOP ( 'NONE', ( #118 ) ) ;
#112 = ORGANIZATION ( 'UNSPECIFIED', 'UNSPECIFIED', '' ) ;
#113 = PERSON_AND_ORGANIZATION_ROLE ( 'design_supplier' ) ;
#114 = ORIENTED_EDGE ( 'NONE', *, *, #24, .T. ) ;
#115 = COORDINATED_UNIVERSAL_TIME_OFFSET ( 1, 0, .AHEAD. ) ;
#116 = CONICAL_SURFACE ( 'NONE', #257, 5.015999999999997350, 0.5235987755982929315 ) ;
#117 = CC_DESIGN_PERSON_AND_ORGANIZATION_ASSIGNMENT ( #90, #113, ( #19 ) ) ;
#118 = ORIENTED_EDGE ( 'NONE', *, *, #266, .T. ) ;
#119 = DIRECTION ( 'NONE',  ( -3.491481338843133355E-15, 1.224646799147353207E-16, -1.000000000000000000 ) ) ;
#120 = CC_DESIGN_APPROVAL ( #159, ( #85 ) ) ;
#121 = FACE_OUTER_BOUND ( 'NONE', #22, .T. ) ;
#122 = EDGE_CURVE ( 'NONE', #4, #4, #106, .T. ) ;
#123 = CARTESIAN_POINT ( 'NONE',  ( 6.794675997531921149E-14, -2.383251521080138274E-15, 19.46072551481334045 ) ) ;
#124 = DIRECTION ( 'NONE',  ( 0.0000000000000000000, 1.000000000000000000, 0.0000000000000000000 ) ) ;
#125 = FACE_OUTER_BOUND ( 'NONE', #204, .T. ) ;
#126 = CC_DESIGN_DATE_AND_TIME_ASSIGNMENT ( #273, #89, ( #263 ) ) ;
#127 = CIRCLE ( 'NONE', #247, 4.000000000000000000 ) ;
#128 = VERTEX_POINT ( 'NONE', #193 ) ;
#129 = DIRECTION ( 'NONE',  ( 0.0000000000000000000, 1.000000000000000000, 0.0000000000000000000 ) ) ;
#130 = DIRECTION ( 'NONE',  ( -3.491481338843133355E-15, 1.224646799147353207E-16, -1.000000000000000000 ) ) ;
#131 = CARTESIAN_POINT ( 'NONE',  ( -1.023005477904995922E-30, 3.588220192068019604E-32, -2.930004140431574784E-16 ) ) ;
#132 = SECURITY_CLASSIFICATION_LEVEL ( 'unclassified' ) ;
#133 = ORIENTED_EDGE ( 'NONE', *, *, #43, .F. ) ;
#134 = LOCAL_TIME ( 11, 47, 29.00000000000000000, #52 ) ;
#135 = CALENDAR_DATE ( 2021, 30, 11 ) ;
#136 = ORIENTED_EDGE ( 'NONE', *, *, #15, .T. ) ;
#137 = DATE_TIME_ROLE ( 'classification_date' ) ;
#138 = EDGE_CURVE ( 'NONE', #83, #83, #35, .T. ) ;
#139 = UNCERTAINTY_MEASURE_WITH_UNIT (LENGTH_MEASURE( 1.000000000000000082E-05 ), #66, 'distance_accuracy_value', 'NONE');
#140 = AXIS2_PLACEMENT_3D ( 'NONE', #235, #79, #170 ) ;
#141 = FACE_OUTER_BOUND ( 'NONE', #275, .T. ) ;
#142 = DIRECTION ( 'NONE',  ( 3.491481338843133355E-15, -1.224646799147353207E-16, 1.000000000000000000 ) ) ;
#143 = AXIS2_PLACEMENT_3D ( 'NONE', #131, #197, #69 ) ;
#144 = CARTESIAN_POINT ( 'NONE',  ( 3.037588764793525640E-13, -1.040834085586084257E-14, 87.00000000000000000 ) ) ;
#145 = DIRECTION ( 'NONE',  ( -3.491481338843133355E-15, 1.224646799147353207E-16, -1.000000000000000000 ) ) ;
#146 = ADVANCED_FACE ( 'NONE', ( #258, #141 ), #233, .T. ) ;
#147 = VERTEX_POINT ( 'NONE', #105 ) ;
#148 = APPLICATION_CONTEXT ( 'configuration controlled 3d designs of mechanical parts and assemblies' ) ;
#149 = CC_DESIGN_APPROVAL ( #242, ( #263 ) ) ;
#150 = CARTESIAN_POINT ( 'NONE',  ( 6.633814543801952113E-14, 5.015999999999997350, 19.00000000000000000 ) ) ;
#151 = MANIFOLD_SOLID_BREP ( 'Corps-Déplacer/Copier1[1]', #107 ) ;
#152 = MANIFOLD_SOLID_BREP ( 'Corps-Déplacer/Copier1[2]', #61 ) ;
#153 = FACE_OUTER_BOUND ( 'NONE', #254, .T. ) ;
#154 = ADVANCED_FACE ( 'NONE', ( #216 ), #39, .F. ) ;
#155 = CARTESIAN_POINT ( 'NONE',  ( 4.643670180661366731E-13, 2.999519565323690036E-32, 133.0000000000000000 ) ) ;
#156 = DATE_AND_TIME ( #135, #51 ) ;
#157 = CONICAL_SURFACE ( 'NONE', #195, 4.749999999999992006, 0.5235987755982937086 ) ;
#158 = APPROVAL_DATE_TIME ( #156, #76 ) ;
#159 = APPROVAL ( #49, 'UNSPECIFIED' ) ;
#160 = APPROVAL_DATE_TIME ( #231, #159 ) ;
#161 = EDGE_LOOP ( 'NONE', ( #209 ) ) ;
#162 = CIRCLE ( 'NONE', #8, 5.000000000000000000 ) ;
#163 = PRODUCT_RELATED_PRODUCT_CATEGORY ( 'detail', '', ( #225 ) ) ;
#164 = CALENDAR_DATE ( 2021, 30, 11 ) ;
#165 = EDGE_LOOP ( 'NONE', ( #184 ) ) ;
#166 = PERSON ( 'UNSPECIFIED', 'UNSPECIFIED', 'UNSPECIFIED', ('UNSPECIFIED'), ('UNSPECIFIED'), ('UNSPECIFIED') ) ;
#167 = CARTESIAN_POINT ( 'NONE',  ( 6.633814543801952113E-14, -2.326828918379970970E-15, 19.00000000000000000 ) ) ;
#168 = AXIS2_PLACEMENT_3D ( 'NONE', #58, #237, #185 ) ;
#169 = CARTESIAN_POINT ( 'NONE',  ( 6.633814543801952113E-14, 3.761397534915934808E-32, 19.00000000000000000 ) ) ;
#170 = DIRECTION ( 'NONE',  ( 4.223530579796572096E-31, 1.000000000000000000, 1.188818171584983563E-16 ) ) ;
#171 = DIRECTION ( 'NONE',  ( 0.0000000000000000000, 1.000000000000000000, 0.0000000000000000000 ) ) ;
#172 = ADVANCED_FACE ( 'NONE', ( #121 ), #213, .T. ) ;
#173 = DIRECTION ( 'NONE',  ( -3.491481338843133355E-15, 1.224646799147353207E-16, -1.000000000000000000 ) ) ;
#174 = VERTEX_POINT ( 'NONE', #267 ) ;
#175 = CIRCLE ( 'NONE', #214, 5.016000000000000014 ) ;
#176 = APPROVAL_PERSON_ORGANIZATION ( #255, #76, #198 ) ;
#177 = EDGE_CURVE ( 'NONE', #174, #174, #201, .T. ) ;
#178 = DIRECTION ( 'NONE',  ( -3.491481338843133355E-15, 1.224646799147353207E-16, -1.000000000000000000 ) ) ;
#179 = CC_DESIGN_PERSON_AND_ORGANIZATION_ASSIGNMENT ( #9, #228, ( #263 ) ) ;
#180 = CC_DESIGN_SECURITY_CLASSIFICATION ( #85, ( #19 ) ) ;
#181 = FACE_OUTER_BOUND ( 'NONE', #93, .T. ) ;
#182 = COORDINATED_UNIVERSAL_TIME_OFFSET ( 1, 0, .AHEAD. ) ;
#183 = CALENDAR_DATE ( 2021, 30, 11 ) ;
#184 = ORIENTED_EDGE ( 'NONE', *, *, #177, .T. ) ;
#185 = DIRECTION ( 'NONE',  ( 4.275831445896958607E-31, 1.000000000000000000, 1.224646799147353207E-16 ) ) ;
#186 = ORIENTED_EDGE ( 'NONE', *, *, #122, .T. ) ;
#187 = AXIS2_PLACEMENT_3D ( 'NONE', #169, #142, #18 ) ;
#188 = ORIENTED_EDGE ( 'NONE', *, *, #96, .F. ) ;
#189 = DIRECTION ( 'NONE',  ( 3.491481338843133355E-15, -1.224646799147353207E-16, 1.000000000000000000 ) ) ;
#190 = CARTESIAN_POINT ( 'NONE',  ( 6.633814543801952113E-14, -2.326828918379970970E-15, 19.00000000000000000 ) ) ;
#191 = AXIS2_PLACEMENT_3D ( 'NONE', #7, #67, #271 ) ;
#192 = DIRECTION ( 'NONE',  ( -3.491481338843133355E-15, 1.224646799147353207E-16, -1.000000000000000000 ) ) ;
#193 = CARTESIAN_POINT ( 'NONE',  ( -3.421138828918010427E-46, 4.785059892324150077, 0.0000000000000000000 ) ) ;
#194 = ADVANCED_FACE ( 'NONE', ( #125, #23 ), #221, .T. ) ;
#195 = AXIS2_PLACEMENT_3D ( 'NONE', #123, #95, #282 ) ;
#196 =( NAMED_UNIT ( * ) PLANE_ANGLE_UNIT ( ) SI_UNIT ( $, .RADIAN. ) );
#197 = DIRECTION ( 'NONE',  ( 3.491481338843133355E-15, -1.224646799147353207E-16, 1.000000000000000000 ) ) ;
#198 = APPROVAL_ROLE ( '' ) ;
#199 = ORIENTED_EDGE ( 'NONE', *, *, #261, .F. ) ;
#200 = PERSON_AND_ORGANIZATION_ROLE ( 'design_owner' ) ;
#201 = CIRCLE ( 'NONE', #140, 5.015999999999997350 ) ;
#202 = ORIENTED_EDGE ( 'NONE', *, *, #138, .T. ) ;
#203 = PERSON_AND_ORGANIZATION ( #166, #112 ) ;
#204 = EDGE_LOOP ( 'NONE', ( #133 ) ) ;
#205 = ADVANCED_FACE ( 'NONE', ( #222 ), #47, .F. ) ;
#206 = APPROVAL_ROLE ( '' ) ;
#207 = ORIENTED_EDGE ( 'NONE', *, *, #138, .F. ) ;
#208 = CARTESIAN_POINT ( 'NONE',  ( 0.0000000000000000000, 0.0000000000000000000, 0.0000000000000000000 ) ) ;
#209 = ORIENTED_EDGE ( 'NONE', *, *, #177, .F. ) ;
#210 = CC_DESIGN_DATE_AND_TIME_ASSIGNMENT ( #272, #137, ( #85 ) ) ;
#211 = DIRECTION ( 'NONE',  ( 4.275831445896958607E-31, 1.000000000000000000, 1.224646799147353207E-16 ) ) ;
#212 = CC_DESIGN_PERSON_AND_ORGANIZATION_ASSIGNMENT ( #203, #200, ( #225 ) ) ;
#213 = PLANE ( 'NONE',  #2 ) ;
#214 = AXIS2_PLACEMENT_3D ( 'NONE', #167, #75, #1 ) ;
#215 = CC_DESIGN_APPROVAL ( #76, ( #19 ) ) ;
#216 = FACE_OUTER_BOUND ( 'NONE', #57, .T. ) ;
#217 = CC_DESIGN_PERSON_AND_ORGANIZATION_ASSIGNMENT ( #72, #14, ( #85 ) ) ;
#218 = EDGE_LOOP ( 'NONE', ( #59 ) ) ;
#219 = CARTESIAN_POINT ( 'NONE',  ( 4.608755367272936534E-13, -1.616533774874506480E-14, 132.0000000000000000 ) ) ;
#220 = AXIS2_PLACEMENT_3D ( 'NONE', #259, #20, #60 ) ;
#221 = CYLINDRICAL_SURFACE ( 'NONE', #191, 4.750000000000000000 ) ;
#222 = FACE_OUTER_BOUND ( 'NONE', #218, .T. ) ;
#223 = VERTEX_POINT ( 'NONE', #84 ) ;
#224 = CARTESIAN_POINT ( 'NONE',  ( 4.643670180661366731E-13, -1.628780242865979995E-14, 133.0000000000000000 ) ) ;
#225 = PRODUCT ( '952322', '952322', '', ( #34 ) ) ;
#226 = ADVANCED_FACE ( 'NONE', ( #81, #6 ), #116, .T. ) ;
#227 = ORIENTED_EDGE ( 'NONE', *, *, #43, .T. ) ;
#228 = PERSON_AND_ORGANIZATION_ROLE ( 'creator' ) ;
#229 = EDGE_LOOP ( 'NONE', ( #136 ) ) ;
#230 = APPLICATION_CONTEXT ( 'configuration controlled 3d designs of mechanical parts and assemblies' ) ;
#231 = DATE_AND_TIME ( #71, #82 ) ;
#232 = CONICAL_SURFACE ( 'NONE', #102, 4.000000000000000000, 0.7853981633974479459 ) ;
#233 = CYLINDRICAL_SURFACE ( 'NONE', #73, 5.015999999999998238 ) ;
#234 = FACE_OUTER_BOUND ( 'NONE', #55, .T. ) ;
#235 = CARTESIAN_POINT ( 'NONE',  ( 1.396592535537251567E-15, -4.898587196589406296E-17, 0.3999999999999994671 ) ) ;
#236 = CIRCLE ( 'NONE', #168, 4.785059892324150077 ) ;
#237 = DIRECTION ( 'NONE',  ( -3.491481338843133355E-15, 1.224646799147353207E-16, -1.000000000000000000 ) ) ;
#238 = FACE_OUTER_BOUND ( 'NONE', #77, .T. ) ;
#239 = VERTEX_POINT ( 'NONE', #45 ) ;
#240 = AXIS2_PLACEMENT_3D ( 'NONE', #144, #283, #99 ) ;
#241 = VERTEX_POINT ( 'NONE', #46 ) ;
#242 = APPROVAL ( #250, 'UNSPECIFIED' ) ;
#243 = PLANE ( 'NONE',  #56 ) ;
#244 = APPROVAL_PERSON_ORGANIZATION ( #252, #159, #274 ) ;
#245 = DIRECTION ( 'NONE',  ( 4.275831445896959482E-31, 1.000000000000000000, 1.224646799147353207E-16 ) ) ;
#246 = ADVANCED_FACE ( 'NONE', ( #153 ), #243, .F. ) ;
#247 = AXIS2_PLACEMENT_3D ( 'NONE', #224, #29, #3 ) ;
#248 = PERSON_AND_ORGANIZATION ( #166, #112 ) ;
#249 = COORDINATED_UNIVERSAL_TIME_OFFSET ( 1, 0, .AHEAD. ) ;
#250 = APPROVAL_STATUS ( 'not_yet_approved' ) ;
#251 = CIRCLE ( 'NONE', #220, 4.749999999999992006 ) ;
#252 = PERSON_AND_ORGANIZATION ( #166, #112 ) ;
#253 = TOROIDAL_SURFACE ( 'NONE', #240, 6.750000000000007994, 2.000000000000004441 ) ;
#254 = EDGE_LOOP ( 'NONE', ( #78 ) ) ;
#255 = PERSON_AND_ORGANIZATION ( #166, #112 ) ;
#256 = ADVANCED_FACE ( 'NONE', ( #181, #238 ), #64, .T. ) ;
#257 = AXIS2_PLACEMENT_3D ( 'NONE', #86, #87, #26 ) ;
#258 = FACE_OUTER_BOUND ( 'NONE', #161, .T. ) ;
#259 = CARTESIAN_POINT ( 'NONE',  ( 6.794675997531921149E-14, -2.383251521080138274E-15, 19.46072551481334045 ) ) ;
#260 = DIRECTION ( 'NONE',  ( -4.275831445896958607E-31, -1.000000000000000000, -1.224646799147353207E-16 ) ) ;
#261 = EDGE_CURVE ( 'NONE', #241, #241, #162, .T. ) ;
#262 = FACE_BOUND ( 'NONE', #17, .T. ) ;
#263 = PRODUCT_DEFINITION ( 'UNKNOWN', '', #19, #36 ) ;
#264 = EDGE_LOOP ( 'NONE', ( #13 ) ) ;
#265 = CARTESIAN_POINT ( 'NONE',  ( 4.643670180661366731E-13, -1.628780242865979995E-14, 133.0000000000000000 ) ) ;
#266 = EDGE_CURVE ( 'NONE', #223, #223, #127, .T. ) ;
#267 = CARTESIAN_POINT ( 'NONE',  ( 1.396592535537253737E-15, 5.015999999999997350, 0.4000000000000000777 ) ) ;
#268 = AXIS2_PLACEMENT_3D ( 'NONE', #208, #277, #110 ) ;
#269 = CC_DESIGN_PERSON_AND_ORGANIZATION_ASSIGNMENT ( #30, #109, ( #19 ) ) ;
#270 = DIRECTION ( 'NONE',  ( 0.0000000000000000000, 1.000000000000000000, 0.0000000000000000000 ) ) ;
#271 = DIRECTION ( 'NONE',  ( 4.275831445896959482E-31, 1.000000000000000000, 1.224646799147353207E-16 ) ) ;
#272 = DATE_AND_TIME ( #183, #40 ) ;
#273 = DATE_AND_TIME ( #164, #134 ) ;
#274 = APPROVAL_ROLE ( '' ) ;
#275 = EDGE_LOOP ( 'NONE', ( #202 ) ) ;
#276 = AXIS2_PLACEMENT_3D ( 'NONE', #42, #145, #124 ) ;
#277 = DIRECTION ( 'NONE',  ( 0.0000000000000000000, 0.0000000000000000000, 1.000000000000000000 ) ) ;
#278 = ADVANCED_FACE ( 'NONE', ( #104, #108 ), #232, .T. ) ;
#279 = EDGE_LOOP ( 'NONE', ( #188 ) ) ;
#280 = APPROVAL_PERSON_ORGANIZATION ( #248, #242, #206 ) ;
#281 = ORIENTED_EDGE ( 'NONE', *, *, #261, .T. ) ;
#282 = DIRECTION ( 'NONE',  ( 0.0000000000000000000, 1.000000000000000000, 0.0000000000000000000 ) ) ;
#283 = DIRECTION ( 'NONE',  ( -3.491481338843133355E-15, 1.224646799147353207E-16, -1.000000000000000000 ) ) ;
ENDSEC;
END-ISO-10303-21;
